  0
SECTION
  2
HEADER
  9
$ACADVER
  1
AC1032
  9
$ACADMAINTVER
 90
      228
  9
$DWGCODEPAGE
  3
ANSI_1252
  9
$REQUIREDVERSIONS
160
                 0
  9
$INSBASE
 10
0.0
 20
0.0
 30
0.0
  9
$EXTMIN
 10
1.000000000000000E+20
 20
1.000000000000000E+20
 30
1.000000000000000E+20
  9
$EXTMAX
 10
-1.000000000000000E+20
 20
-1.000000000000000E+20
 30
-1.000000000000000E+20
  9
$LIMMIN
 10
0.0
 20
0.0
  9
$LIMMAX
 10
12.0
 20
9.0
  9
$ORTHOMODE
 70
     0
  9
$REGENMODE
 70
     1
  9
$FILLMODE
 70
     1
  9
$QTEXTMODE
 70
     0
  9
$MIRRTEXT
 70
     0
  9
$LTSCALE
 40
1.0
  9
$ATTMODE
 70
     1
  9
$TEXTSIZE
 40
0.2
  9
$TRACEWID
 40
0.05
  9
$TEXTSTYLE
  7
Standard
  9
$CLAYER
  8
0
  9
$CELTYPE
  6
ByLayer
  9
$CECOLOR
 62
   256
  9
$CELTSCALE
 40
1.0
  9
$DISPSILH
 70
     0
  9
$DIMSCALE
 40
1.0
  9
$DIMASZ
 40
0.18
  9
$DIMEXO
 40
0.0625
  9
$DIMDLI
 40
0.38
  9
$DIMRND
 40
0.0
  9
$DIMDLE
 40
0.0
  9
$DIMEXE
 40
0.18
  9
$DIMTP
 40
0.0
  9
$DIMTM
 40
0.0
  9
$DIMTXT
 40
0.18
  9
$DIMCEN
 40
0.09
  9
$DIMTSZ
 40
0.0
  9
$DIMTOL
 70
     0
  9
$DIMLIM
 70
     0
  9
$DIMTIH
 70
     1
  9
$DIMTOH
 70
     1
  9
$DIMSE1
 70
     0
  9
$DIMSE2
 70
     0
  9
$DIMTAD
 70
     0
  9
$DIMZIN
 70
     0
  9
$DIMBLK
  1

  9
$DIMASO
 70
     1
  9
$DIMSHO
 70
     1
  9
$DIMPOST
  1

  9
$DIMAPOST
  1

  9
$DIMALT
 70
     0
  9
$DIMALTD
 70
     2
  9
$DIMALTF
 40
25.4
  9
$DIMLFAC
 40
1.0
  9
$DIMTOFL
 70
     0
  9
$DIMTVP
 40
0.0
  9
$DIMTIX
 70
     0
  9
$DIMSOXD
 70
     0
  9
$DIMSAH
 70
     0
  9
$DIMBLK1
  1

  9
$DIMBLK2
  1

  9
$DIMSTYLE
  2
Standard
  9
$DIMCLRD
 70
     0
  9
$DIMCLRE
 70
     0
  9
$DIMCLRT
 70
     0
  9
$DIMTFAC
 40
1.0
  9
$DIMGAP
 40
0.09
  9
$DIMJUST
 70
     0
  9
$DIMSD1
 70
     0
  9
$DIMSD2
 70
     0
  9
$DIMTOLJ
 70
     1
  9
$DIMTZIN
 70
     0
  9
$DIMALTZ
 70
     0
  9
$DIMALTTZ
 70
     0
  9
$DIMUPT
 70
     0
  9
$DIMDEC
 70
     4
  9
$DIMTDEC
 70
     4
  9
$DIMALTU
 70
     2
  9
$DIMALTTD
 70
     2
  9
$DIMTXSTY
  7
Standard
  9
$DIMAUNIT
 70
     0
  9
$DIMADEC
 70
     0
  9
$DIMALTRND
 40
0.0
  9
$DIMAZIN
 70
     0
  9
$DIMDSEP
 70
    46
  9
$DIMATFIT
 70
     3
  9
$DIMFRAC
 70
     0
  9
$DIMLDRBLK
  1

  9
$DIMLUNIT
 70
     2
  9
$DIMLWD
 70
    -2
  9
$DIMLWE
 70
    -2
  9
$DIMTMOVE
 70
     0
  9
$DIMFXL
 40
1.0
  9
$DIMFXLON
 70
     0
  9
$DIMJOGANG
 40
0.7853981633974483
  9
$DIMTFILL
 70
     0
  9
$DIMTFILLCLR
 70
     0
  9
$DIMARCSYM
 70
     0
  9
$DIMLTYPE
  6

  9
$DIMLTEX1
  6

  9
$DIMLTEX2
  6

  9
$DIMTXTDIRECTION
 70
     0
  9
$LUNITS
 70
     2
  9
$LUPREC
 70
     4
  9
$SKETCHINC
 40
0.1
  9
$FILLETRAD
 40
0.0
  9
$AUNITS
 70
     0
  9
$AUPREC
 70
     0
  9
$MENU
  1
.
  9
$ELEVATION
 40
0.0
  9
$PELEVATION
 40
0.0
  9
$THICKNESS
 40
0.0
  9
$LIMCHECK
 70
     0
  9
$CHAMFERA
 40
0.0
  9
$CHAMFERB
 40
0.0
  9
$CHAMFERC
 40
0.0
  9
$CHAMFERD
 40
0.0
  9
$SKPOLY
 70
     0
  9
$TDCREATE
 40
2460032.713530093
  9
$TDUCREATE
 40
2460032.671863426
  9
$TDUPDATE
 40
2460032.713530093
  9
$TDUUPDATE
 40
2460032.671863426
  9
$TDINDWG
 40
0.0000000000
  9
$TDUSRTIMER
 40
0.0000000000
  9
$USRTIMER
 70
     1
  9
$ANGBASE
 50
0.0
  9
$ANGDIR
 70
     0
  9
$PDMODE
 70
     0
  9
$PDSIZE
 40
0.0
  9
$PLINEWID
 40
0.0
  9
$SPLFRAME
 70
     0
  9
$SPLINETYPE
 70
     6
  9
$SPLINESEGS
 70
     8
  9
$HANDSEED
  5
30B
  9
$SURFTAB1
 70
     6
  9
$SURFTAB2
 70
     6
  9
$SURFTYPE
 70
     6
  9
$SURFU
 70
     6
  9
$SURFV
 70
     6
  9
$UCSBASE
  2

  9
$UCSNAME
  2

  9
$UCSORG
 10
0.0
 20
0.0
 30
0.0
  9
$UCSXDIR
 10
1.0
 20
0.0
 30
0.0
  9
$UCSYDIR
 10
0.0
 20
1.0
 30
0.0
  9
$UCSORTHOREF
  2

  9
$UCSORTHOVIEW
 70
     0
  9
$UCSORGTOP
 10
0.0
 20
0.0
 30
0.0
  9
$UCSORGBOTTOM
 10
0.0
 20
0.0
 30
0.0
  9
$UCSORGLEFT
 10
0.0
 20
0.0
 30
0.0
  9
$UCSORGRIGHT
 10
0.0
 20
0.0
 30
0.0
  9
$UCSORGFRONT
 10
0.0
 20
0.0
 30
0.0
  9
$UCSORGBACK
 10
0.0
 20
0.0
 30
0.0
  9
$PUCSBASE
  2

  9
$PUCSNAME
  2

  9
$PUCSORG
 10
0.0
 20
0.0
 30
0.0
  9
$PUCSXDIR
 10
1.0
 20
0.0
 30
0.0
  9
$PUCSYDIR
 10
0.0
 20
1.0
 30
0.0
  9
$PUCSORTHOREF
  2

  9
$PUCSORTHOVIEW
 70
     0
  9
$PUCSORGTOP
 10
0.0
 20
0.0
 30
0.0
  9
$PUCSORGBOTTOM
 10
0.0
 20
0.0
 30
0.0
  9
$PUCSORGLEFT
 10
0.0
 20
0.0
 30
0.0
  9
$PUCSORGRIGHT
 10
0.0
 20
0.0
 30
0.0
  9
$PUCSORGFRONT
 10
0.0
 20
0.0
 30
0.0
  9
$PUCSORGBACK
 10
0.0
 20
0.0
 30
0.0
  9
$USERI1
 70
     0
  9
$USERI2
 70
     0
  9
$USERI3
 70
     0
  9
$USERI4
 70
     0
  9
$USERI5
 70
     0
  9
$USERR1
 40
0.0
  9
$USERR2
 40
0.0
  9
$USERR3
 40
0.0
  9
$USERR4
 40
0.0
  9
$USERR5
 40
0.0
  9
$WORLDVIEW
 70
     1
  9
$SHADEDGE
 70
     3
  9
$SHADEDIF
 70
    70
  9
$TILEMODE
 70
     1
  9
$MAXACTVP
 70
    64
  9
$PINSBASE
 10
0.0
 20
0.0
 30
0.0
  9
$PLIMCHECK
 70
     0
  9
$PEXTMIN
 10
1.000000000000000E+20
 20
1.000000000000000E+20
 30
1.000000000000000E+20
  9
$PEXTMAX
 10
-1.000000000000000E+20
 20
-1.000000000000000E+20
 30
-1.000000000000000E+20
  9
$PLIMMIN
 10
0.0
 20
0.0
  9
$PLIMMAX
 10
12.0
 20
9.0
  9
$UNITMODE
 70
     0
  9
$VISRETAIN
 70
     1
  9
$PLINEGEN
 70
     0
  9
$PSLTSCALE
 70
     1
  9
$TREEDEPTH
 70
  3020
  9
$CMLSTYLE
  2
Standard
  9
$CMLJUST
 70
     0
  9
$CMLSCALE
 40
1.0
  9
$PROXYGRAPHICS
 70
     1
  9
$MEASUREMENT
 70
     0
  9
$CELWEIGHT
370
    -1
  9
$ENDCAPS
280
     0
  9
$JOINSTYLE
280
     0
  9
$LWDISPLAY
290
     1
  9
$INSUNITS
 70
     0
  9
$HYPERLINKBASE
  1

  9
$STYLESHEET
  1

  9
$XEDIT
290
     1
  9
$CEPSNTYPE
380
     0
  9
$PSTYLEMODE
290
     1
  9
$FINGERPRINTGUID
  2
{0B847B6D-DCB2-894B-8548-3FED5DF12481}
  9
$VERSIONGUID
  2
{F628967C-C439-2246-9100-6AA5C97C534E}
  9
$EXTNAMES
290
     1
  9
$PSVPSCALE
 40
0.0
  9
$OLESTARTUP
290
     0
  9
$SORTENTS
280
   127
  9
$INDEXCTL
280
     0
  9
$HIDETEXT
280
     1
  9
$XCLIPFRAME
280
     2
  9
$HALOGAP
280
     0
  9
$OBSCOLOR
 70
   257
  9
$OBSLTYPE
280
     0
  9
$INTERSECTIONDISPLAY
280
     0
  9
$INTERSECTIONCOLOR
 70
   257
  9
$DIMASSOC
280
     2
  9
$PROJECTNAME
  1

  9
$CAMERADISPLAY
290
     0
  9
$LENSLENGTH
 40
50.0
  9
$CAMERAHEIGHT
 40
0.0
  9
$STEPSPERSEC
 40
2.0
  9
$STEPSIZE
 40
6.0
  9
$3DDWFPREC
 40
2.0
  9
$PSOLWIDTH
 40
0.25
  9
$PSOLHEIGHT
 40
4.0
  9
$LOFTANG1
 40
1.570796326794896
  9
$LOFTANG2
 40
1.570796326794896
  9
$LOFTMAG1
 40
0.0
  9
$LOFTMAG2
 40
0.0
  9
$LOFTPARAM
 70
     7
  9
$LOFTNORMALS
280
     1
  9
$LATITUDE
 40
37.795
  9
$LONGITUDE
 40
-122.394
  9
$NORTHDIRECTION
 40
0.0
  9
$TIMEZONE
 70
 -8000
  9
$LIGHTGLYPHDISPLAY
280
     1
  9
$TILEMODELIGHTSYNCH
280
     1
  9
$CMATERIAL
347
11
  9
$SOLIDHIST
280
     0
  9
$SHOWHIST
280
     1
  9
$DWFFRAME
280
     2
  9
$DGNFRAME
280
     0
  9
$REALWORLDSCALE
290
     1
  9
$INTERFERECOLOR
 62
     1
  9
$INTERFEREOBJVS
345
33
  9
$INTERFEREVPVS
346
30
  9
$CSHADOW
280
     0
  9
$SHADOWPLANELOCATION
 40
0.0
  0
ENDSEC
  0
SECTION
  2
CLASSES
  0
CLASS
  1
ACDBDICTIONARYWDFLT
  2
AcDbDictionaryWithDefault
  3
ObjectDBX Classes
 90
        0
 91
        1
280
     0
281
     0
  0
CLASS
  1
MATERIAL
  2
AcDbMaterial
  3
ObjectDBX Classes
 90
     1153
 91
        3
280
     0
281
     0
  0
CLASS
  1
VISUALSTYLE
  2
AcDbVisualStyle
  3
ObjectDBX Classes
 90
     4095
 91
       24
280
     0
281
     0
  0
CLASS
  1
SCALE
  2
AcDbScale
  3
ObjectDBX Classes
 90
     1153
 91
       17
280
     0
281
     0
  0
CLASS
  1
TABLESTYLE
  2
AcDbTableStyle
  3
ObjectDBX Classes
 90
     4095
 91
        1
280
     0
281
     0
  0
CLASS
  1
MLEADERSTYLE
  2
AcDbMLeaderStyle
  3
ACDB_MLEADERSTYLE_CLASS
 90
     4095
 91
        1
280
     0
281
     0
  0
CLASS
  1
ACDBSECTIONVIEWSTYLE
  2
AcDbSectionViewStyle
  3
ObjectDBX Classes
 90
     1025
 91
        1
280
     0
281
     0
  0
CLASS
  1
ACDBDETAILVIEWSTYLE
  2
AcDbDetailViewStyle
  3
ObjectDBX Classes
 90
     1025
 91
        1
280
     0
281
     0
  0
CLASS
  1
DICTIONARYVAR
  2
AcDbDictionaryVar
  3
ObjectDBX Classes
 90
        0
 91
        5
280
     0
281
     0
  0
CLASS
  1
CELLSTYLEMAP
  2
AcDbCellStyleMap
  3
ObjectDBX Classes
 90
     1152
 91
        1
280
     0
281
     0
  0
ENDSEC
  0
SECTION
  2
TABLES
  0
TABLE
  2
VPORT
  5
8
330
0
100
AcDbSymbolTable
 70
     1
  0
VPORT
  5
57
330
8
100
AcDbSymbolTableRecord
100
AcDbViewportTableRecord
  2
*Active
 70
     0
 10
0.0
 20
0.0
 11
1.0
 21
1.0
 12
0.0
 22
0.0
 13
0.0
 23
0.0
 14
1.0
 24
1.0
 15
0.0
 25
0.0
 16
0.0
 26
0.0
 36
1.0
 17
297.6379999999999
 27
420.9450000000002
 37
0.0
 40
858.7278000000003
 41
0.7070709950231024
 42
50.0
 43
0.0
 44
0.0
 50
0.0
 51
0.0
 71
     0
 72
   100
 73
     1
 74
     1
 75
     0
 76
     0
 77
     0
 78
     0
281
     0
 65
     1
110
0.0
120
0.0
130
0.0
111
1.0
121
0.0
131
0.0
112
0.0
122
1.0
132
0.0
 79
     0
146
0.0
 60
     3
 61
     5
292
     1
282
     1
141
0.0
142
0.0
 63
   250
421
  3355443
  0
ENDTAB
  0
TABLE
  2
LTYPE
  5
5
330
0
100
AcDbSymbolTable
 70
    12
  0
LTYPE
  5
5B
330
5
100
AcDbSymbolTableRecord
100
AcDbLinetypeTableRecord
  2
ByBlock
 70
     0
  3

 72
    65
 73
     0
 40
0.0
  0
LTYPE
  5
5C
330
5
100
AcDbSymbolTableRecord
100
AcDbLinetypeTableRecord
  2
ByLayer
 70
     0
  3

 72
    65
 73
     0
 40
0.0
  0
LTYPE
  5
5D
330
5
100
AcDbSymbolTableRecord
100
AcDbLinetypeTableRecord
  2
Continuous
 70
     0
  3
Solid line
 72
    65
 73
     0
 40
0.0
  0
LTYPE
  5
7A
330
5
100
AcDbSymbolTableRecord
100
AcDbLinetypeTableRecord
  2
AI-Linetype-0
 70
     0
  3
Adobe Illustrator Linetype No. 0
 72
    65
 73
     4
 40
20.31999969482422
 49
12.69999980926513
 74
     0
 49
-2.539999961853027
 74
     0
 49
2.539999961853027
 74
     0
 49
-2.539999961853027
 74
     0
  0
LTYPE
  5
2BE
330
5
100
AcDbSymbolTableRecord
100
AcDbLinetypeTableRecord
  2
AI-Linetype-1
 70
     0
  3
Adobe Illustrator Linetype No. 1
 72
    65
 73
     2
 40
1.90499997138977
 49
1.269999980926513
 74
     0
 49
-0.6349999904632569
 74
     0
  0
LTYPE
  5
2C0
330
5
100
AcDbSymbolTableRecord
100
AcDbLinetypeTableRecord
  2
AI-Linetype-2
 70
     0
  3
Adobe Illustrator Linetype No. 2
 72
    65
 73
     2
 40
1.90499997138977
 49
1.269999980926513
 74
     0
 49
-0.6349999904632569
 74
     0
  0
LTYPE
  5
2C2
330
5
100
AcDbSymbolTableRecord
100
AcDbLinetypeTableRecord
  2
AI-Linetype-3
 70
     0
  3
Adobe Illustrator Linetype No. 3
 72
    65
 73
     2
 40
1.90499997138977
 49
1.269999980926513
 74
     0
 49
-0.6349999904632569
 74
     0
  0
LTYPE
  5
2C4
330
5
100
AcDbSymbolTableRecord
100
AcDbLinetypeTableRecord
  2
AI-Linetype-4
 70
     0
  3
Adobe Illustrator Linetype No. 4
 72
    65
 73
     2
 40
1.90499997138977
 49
1.269999980926513
 74
     0
 49
-0.6349999904632569
 74
     0
  0
LTYPE
  5
2C6
330
5
100
AcDbSymbolTableRecord
100
AcDbLinetypeTableRecord
  2
AI-Linetype-5
 70
     0
  3
Adobe Illustrator Linetype No. 5
 72
    65
 73
     2
 40
1.90499997138977
 49
1.269999980926513
 74
     0
 49
-0.6349999904632569
 74
     0
  0
LTYPE
  5
2C8
330
5
100
AcDbSymbolTableRecord
100
AcDbLinetypeTableRecord
  2
AI-Linetype-6
 70
     0
  3
Adobe Illustrator Linetype No. 6
 72
    65
 73
     2
 40
1.90499997138977
 49
1.269999980926513
 74
     0
 49
-0.6349999904632569
 74
     0
  0
LTYPE
  5
2CA
330
5
100
AcDbSymbolTableRecord
100
AcDbLinetypeTableRecord
  2
AI-Linetype-7
 70
     0
  3
Adobe Illustrator Linetype No. 7
 72
    65
 73
     2
 40
1.90499997138977
 49
1.269999980926513
 74
     0
 49
-0.6349999904632569
 74
     0
  0
LTYPE
  5
2CC
330
5
100
AcDbSymbolTableRecord
100
AcDbLinetypeTableRecord
  2
AI-Linetype-8
 70
     0
  3
Adobe Illustrator Linetype No. 8
 72
    65
 73
     2
 40
1.90499997138977
 49
1.269999980926513
 74
     0
 49
-0.6349999904632569
 74
     0
  0
LTYPE
  5
2CE
330
5
100
AcDbSymbolTableRecord
100
AcDbLinetypeTableRecord
  2
AI-Linetype-9
 70
     0
  3
Adobe Illustrator Linetype No. 9
 72
    65
 73
     2
 40
1.90499997138977
 49
1.269999980926513
 74
     0
 49
-0.6349999904632569
 74
     0
  0
LTYPE
  5
2D0
330
5
100
AcDbSymbolTableRecord
100
AcDbLinetypeTableRecord
  2
AI-Linetype-10
 70
     0
  3
Adobe Illustrator Linetype No. 10
 72
    65
 73
     2
 40
1.90499997138977
 49
1.269999980926513
 74
     0
 49
-0.6349999904632569
 74
     0
  0
ENDTAB
  0
TABLE
  2
LAYER
  5
2
330
0
100
AcDbSymbolTable
 70
     1
  0
LAYER
  5
54
330
2
100
AcDbSymbolTableRecord
100
AcDbLayerTableRecord
  2
0
 70
     0
 62
     7
  6
Continuous
370
     0
390
F
347
21
348
0
  0
ENDTAB
  0
TABLE
  2
STYLE
  5
3
330
0
100
AcDbSymbolTable
 70
     2
  0
STYLE
  5
55
330
3
100
AcDbSymbolTableRecord
100
AcDbTextStyleTableRecord
  2
Standard
 70
     0
 40
0.0
 41
1.0
 50
0.0
 71
     0
 42
0.2
  3
txt
  4

  0
STYLE
  5
5A
330
3
100
AcDbSymbolTableRecord
100
AcDbTextStyleTableRecord
  2
Annotative
 70
     0
 40
0.0
 41
1.0
 50
0.0
 71
     0
 42
0.2
  3
txt
  4

1001
AcadAnnotative
1000
AnnotativeData
1002
{
1070
     1
1070
     1
1002
}
  0
ENDTAB
  0
TABLE
  2
VIEW
  5
6
330
0
100
AcDbSymbolTable
 70
     0
  0
ENDTAB
  0
TABLE
  2
UCS
  5
7
330
0
100
AcDbSymbolTable
 70
     0
  0
ENDTAB
  0
TABLE
  2
APPID
  5
9
330
0
100
AcDbSymbolTable
 70
     2
  0
APPID
  5
56
330
9
100
AcDbSymbolTableRecord
100
AcDbRegAppTableRecord
  2
ACAD
 70
     0
  0
APPID
  5
5E
330
9
100
AcDbSymbolTableRecord
100
AcDbRegAppTableRecord
  2
AcadAnnotative
 70
     0
  0
ENDTAB
  0
TABLE
  2
DIMSTYLE
  5
A
330
0
100
AcDbSymbolTable
 70
     2
100
AcDbDimStyleTable
 71
     0
  0
DIMSTYLE
105
58
330
A
100
AcDbSymbolTableRecord
100
AcDbDimStyleTableRecord
  2
Standard
 70
     0
340
55
  0
DIMSTYLE
105
59
330
A
100
AcDbSymbolTableRecord
100
AcDbDimStyleTableRecord
  2
Annotative
 70
     0
340
55
1001
AcadAnnotative
1000
AnnotativeData
1002
{
1070
     1
1070
     1
1002
}
  0
ENDTAB
  0
TABLE
  2
BLOCK_RECORD
  5
1
330
0
100
AcDbSymbolTable
 70
     1
  0
BLOCK_RECORD
  5
70
330
1
100
AcDbSymbolTableRecord
100
AcDbBlockTableRecord
  2
*Model_Space
340
73
 70
     0
280
     1
281
     0
  0
BLOCK_RECORD
  5
6C
330
1
100
AcDbSymbolTableRecord
100
AcDbBlockTableRecord
  2
*Paper_Space
340
6F
 70
     0
280
     1
281
     0
  0
BLOCK_RECORD
  5
74
330
1
100
AcDbSymbolTableRecord
100
AcDbBlockTableRecord
  2
*Paper_Space0
340
77
 70
     0
280
     1
281
     0
  0
ENDTAB
  0
ENDSEC
  0
SECTION
  2
BLOCKS
  0
BLOCK
  5
71
330
70
100
AcDbEntity
  8
0
100
AcDbBlockBegin
  2
*Model_Space
 70
     0
 10
0.0
 20
0.0
 30
0.0
  3
*Model_Space
  1

  0
ENDBLK
  5
72
330
70
100
AcDbEntity
  8
0
100
AcDbBlockEnd
  0
BLOCK
  5
6D
330
6C
100
AcDbEntity
 67
     1
  8
0
100
AcDbBlockBegin
  2
*Paper_Space
 70
     0
 10
0.0
 20
0.0
 30
0.0
  3
*Paper_Space
  1

  0
ENDBLK
  5
6E
330
6C
100
AcDbEntity
 67
     1
  8
0
100
AcDbBlockEnd
  0
BLOCK
  5
75
330
74
100
AcDbEntity
 67
     1
  8
0
100
AcDbBlockBegin
  2
*Paper_Space0
 70
     0
 10
0.0
 20
0.0
 30
0.0
  3
*Paper_Space0
  1

  0
ENDBLK
  5
76
330
74
100
AcDbEntity
 67
     1
  8
0
100
AcDbBlockEnd
  0
ENDSEC
  0
SECTION
  2
ENTITIES
  0
LINE
  5
78
330
70
100
AcDbEntity
  8
0
 62
    18
420
        0
370
     9
100
AcDbLine
 10
282.4436096895079
 20
319.9480035364522
 30
0.0
 11
282.4436096895079
 21
319.9382283747527
 31
0.0
  0
LINE
  5
79
330
70
100
AcDbEntity
  8
0
  6
AI-Linetype-0
 62
    18
420
        0
370
     9
100
AcDbLine
 10
247.7929039348083
 20
547.5753930679538
 30
0.0
 11
425.792907034207
 21
547.5753930679538
 31
0.0
  0
LINE
  5
7B
330
70
100
AcDbEntity
  8
0
 62
    18
420
        0
370
     9
100
AcDbLine
 10
338.1426386815074
 20
529.2360571495509
 30
0.0
 11
338.1426386815074
 21
514.2360714546511
 31
0.0
  0
LINE
  5
7C
330
70
100
AcDbEntity
  8
0
 62
    18
420
        0
370
     9
100
AcDbLine
 10
346.0426387657062
 20
527.6360896698543
 30
0.0
 11
346.0426387657062
 21
529.2360571495509
 31
0.0
  0
LINE
  5
7D
330
70
100
AcDbEntity
  8
0
 62
    18
420
        0
370
     9
100
AcDbLine
 10
346.0426387657062
 20
518.6216620079513
 30
0.0
 11
346.0426387657062
 21
524.8550561539523
 31
0.0
  0
LINE
  5
7E
330
70
100
AcDbEntity
  8
0
 62
    18
420
        0
370
     9
100
AcDbLine
 10
346.0426387657062
 20
514.2360714546511
 30
0.0
 11
346.0426387657062
 21
515.8510593048522
 31
0.0
  0
LINE
  5
7F
330
70
100
AcDbEntity
  8
0
 62
    18
420
        0
370
     9
100
AcDbLine
 10
343.8926386927087
 20
485.9364417664519
 30
0.0
 11
343.8926386927087
 21
514.2360714546511
 31
0.0
  0
LINE
  5
80
330
70
100
AcDbEntity
  8
0
 62
    18
420
        0
370
     9
100
AcDbLine
 10
340.2926387546068
 20
514.2360714546511
 30
0.0
 11
340.2926387546068
 21
487.3114017120533
 31
0.0
  0
LINE
  5
81
330
70
100
AcDbEntity
  8
0
 62
    18
420
        0
370
     9
100
AcDbLine
 10
248.0647090171078
 20
545.7989362350518
 30
0.0
 11
247.9428845738075
 21
545.1074627510534
 31
0.0
  0
LINE
  5
82
330
70
100
AcDbEntity
  8
0
 62
    18
420
        0
370
     9
100
AcDbLine
 10
248.0956363772075
 20
545.9745315185528
 30
0.0
 11
248.0647090171078
 21
545.7989362350518
 31
0.0
  0
LINE
  5
83
330
70
100
AcDbEntity
  8
0
 62
    18
420
        0
370
     9
100
AcDbLine
 10
272.4085646962085
 20
540.4860166183525
 30
0.0
 11
272.4085646962085
 21
538.9143613449532
 31
0.0
  0
LINE
  5
84
330
70
100
AcDbEntity
  8
0
 62
    18
420
        0
370
     9
100
AcDbLine
 10
425.2994480823072
 20
545.3117874733525
 30
0.0
 11
425.2772826050058
 21
545.9462789169529
 31
0.0
  0
LINE
  5
85
330
70
100
AcDbEntity
  8
0
 62
    18
420
        0
370
     9
100
AcDbLine
 10
425.3058108781078
 20
545.1296356789543
 30
0.0
 11
425.3057810758073
 21
545.1304701439539
 31
0.0
  0
LINE
  5
86
330
70
100
AcDbEntity
  8
0
 62
    18
420
        0
370
     9
100
AcDbLine
 10
425.3055873607081
 20
545.1360133758535
 30
0.0
 11
425.2994480823072
 21
545.3117874733525
 31
0.0
  0
SPLINE
  5
87
330
70
100
AcDbEntity
  8
0
 62
    18
420
        0
370
     9
100
AcDbSpline
210
0.0
220
0.0
230
1.0
 70
     8
 71
     3
 72
    11
 73
     7
 74
     0
 42
0.0000000001
 43
0.0000000001
 40
0.0
 40
0.0
 40
0.0
 40
0.0
 40
1.0
 40
1.0
 40
1.0
 40
2.0
 40
2.0
 40
2.0
 40
2.0
 10
263.0250725244241
 20
534.0707090965743
 30
0.0
 10
263.0206091916116
 20
534.0713968188866
 30
0.0
 10
263.0161458588027
 20
534.0720845411988
 30
0.0
 10
263.0116540287691
 20
534.0724376312728
 30
0.0
 10
263.0083389342963
 20
534.0726982214882
 30
0.0
 10
263.005008317823
 20
534.0727765426363
 30
0.0
 10
263.0016777013498
 20
534.0728548637853
 30
0.0
  0
LINE
  5
88
330
70
100
AcDbEntity
  8
0
 62
    18
420
        0
370
     9
100
AcDbLine
 10
248.0742010568074
 20
529.6118644348535
 30
0.0
 11
248.1511581038076
 21
529.5347956291534
 31
0.0
  0
SPLINE
  5
89
330
70
100
AcDbEntity
  8
0
 62
    18
420
        0
370
     9
100
AcDbSpline
210
0.0
220
0.0
230
1.0
 70
     8
 71
     3
 72
    11
 73
     7
 74
     0
 42
0.0000000001
 43
0.0000000001
 40
0.0
 40
0.0
 40
0.0
 40
0.0
 40
1.0
 40
1.0
 40
1.0
 40
2.0
 40
2.0
 40
2.0
 40
2.0
 10
258.6554262136179
 20
534.0728548637853
 30
0.0
 10
258.65107790406
 20
534.0727317413202
 30
0.0
 10
258.646729594504
 20
534.0726086188542
 30
0.0
 10
258.642410049315
 20
534.0721992126937
 30
0.0
 10
258.6369880991624
 20
534.071685320675
 30
0.0
 10
258.6316114690007
 20
534.0707203714673
 30
0.0
 10
258.6262348388373
 20
534.069755422257
 30
0.0
  0
LINE
  5
8A
330
70
100
AcDbEntity
  8
0
 62
    18
420
        0
370
     9
100
AcDbLine
 10
263.1667602156085
 20
534.0729740730539
 30
0.0
 11
263.1636980270068
 21
534.0729740730539
 31
0.0
  0
LINE
  5
8B
330
70
100
AcDbEntity
  8
0
 62
    18
420
        0
370
     9
100
AcDbLine
 10
263.2929730509077
 20
530.9741285911541
 30
0.0
 11
263.2962513064085
 21
530.9741285911541
 31
0.0
  0
LINE
  5
8C
330
70
100
AcDbEntity
  8
0
 62
    18
420
        0
370
     9
100
AcDbLine
 10
258.6328435038085
 20
534.0729740730539
 30
0.0
 11
258.6322772597077
 21
534.0729740730539
 31
0.0
  0
LINE
  5
8D
330
70
100
AcDbEntity
  8
0
 62
    18
420
        0
370
     9
100
AcDbLine
 10
258.5032928084083
 20
530.9741285911541
 30
0.0
 11
258.5036355351076
 21
530.9741285911541
 31
0.0
  0
LINE
  5
8E
330
70
100
AcDbEntity
  8
0
 62
    18
420
        0
370
     9
100
AcDbLine
 10
258.5030767416083
 20
530.9741285911541
 30
0.0
 11
258.5032928084083
 21
530.9741285911541
 31
0.0
  0
LINE
  5
8F
330
70
100
AcDbEntity
  8
0
 62
    18
420
        0
370
     9
100
AcDbLine
 10
265.1557597612082
 20
530.664184438353
 30
0.0
 11
265.1557597612082
 21
534.1889051071521
 31
0.0
  0
LINE
  5
90
330
70
100
AcDbEntity
  8
0
 62
    18
420
        0
370
     9
100
AcDbLine
 10
425.2395156120055
 20
529.9261597267514
 30
0.0
 11
425.3058257793054
 21
545.1400068870543
 31
0.0
  0
LINE
  5
91
330
70
100
AcDbEntity
  8
0
 62
    18
420
        0
370
     9
100
AcDbLine
 10
425.2387482022059
 20
529.7496703735532
 30
0.0
 11
425.2395156120055
 21
529.9261597267514
 31
0.0
  0
LINE
  5
92
330
70
100
AcDbEntity
  8
0
 62
    18
420
        0
370
     9
100
AcDbLine
 10
425.1047197078078
 20
529.5347956291534
 30
0.0
 11
425.1816767548062
 21
529.6118644348535
 31
0.0
  0
LINE
  5
93
330
70
100
AcDbEntity
  8
0
 62
    18
420
        0
370
     9
100
AcDbLine
 10
345.880692014609
 20
527.2344735733522
 30
0.0
 11
345.880692014609
 21
525.2376583687537
 31
0.0
  0
LINE
  5
94
330
70
100
AcDbEntity
  8
0
 62
    18
420
        0
370
     9
100
AcDbLine
 10
346.0426387657062
 20
527.4555472008533
 30
0.0
 11
346.0426387657062
 21
525.0165847412509
 31
0.0
  0
LINE
  5
95
330
70
100
AcDbEntity
  8
0
 62
    18
420
        0
370
     9
100
AcDbLine
 10
345.880692014609
 20
518.2344702354521
 30
0.0
 11
345.880692014609
 21
516.2376550308517
 31
0.0
  0
LINE
  5
96
330
70
100
AcDbEntity
  8
0
 62
    18
420
        0
370
     9
100
AcDbLine
 10
346.0426387657062
 20
518.4555438629513
 30
0.0
 11
346.0426387657062
 21
516.0165814033526
 31
0.0
  0
SPLINE
  5
97
330
70
100
AcDbEntity
  8
0
 62
    18
420
        0
370
     9
100
AcDbSpline
210
0.0
220
0.0
230
1.0
 70
     8
 71
     3
 72
    35
 73
    31
 74
     0
 42
0.0000000001
 43
0.0000000001
 40
0.0
 40
0.0
 40
0.0
 40
0.0
 40
1.0
 40
1.0
 40
1.0
 40
2.0
 40
2.0
 40
2.0
 40
3.0
 40
3.0
 40
3.0
 40
4.0
 40
4.0
 40
4.0
 40
5.0
 40
5.0
 40
5.0
 40
6.0
 40
6.0
 40
6.0
 40
7.0
 40
7.0
 40
7.0
 40
8.0
 40
8.0
 40
8.0
 40
9.0
 40
9.0
 40
9.0
 40
10.0
 40
10.0
 40
10.0
 40
10.0
 10
346.0359565262752
 20
524.855056153915
 30
0.0
 10
346.0359998245404
 20
524.8549166249213
 30
0.0
 10
346.0360431228037
 20
524.8547770959276
 30
0.0
 10
346.0360859801131
 20
524.8546389214025
 30
0.0
 10
346.0505269900423
 20
524.8080802422546
 30
0.0
 10
346.0149021905909
 20
524.9153070546927
 30
0.0
 10
345.9893801529943
 20
524.9942329994674
 30
0.0
 10
345.9407940278725
 20
525.1444837705512
 30
0.0
 10
345.9288207881509
 20
525.1921708625968
 30
0.0
 10
345.9120859672367
 20
525.2635863892074
 30
0.0
 10
345.8882254433647
 20
525.3654107162446
 30
0.0
 10
345.8546850610765
 20
525.5154727772978
 30
0.0
 10
345.83165229308
 20
525.6549504868007
 30
0.0
 10
345.8048671313518
 20
525.8171512699418
 30
0.0
 10
345.7922921765566
 20
525.9650380687953
 30
0.0
 10
345.7881148253637
 20
526.1175421349035
 30
0.0
 10
345.7840591950098
 20
526.2656024942925
 30
0.0
 10
345.7879189146443
 20
526.4180149626927
 30
0.0
 10
345.8011403028923
 20
526.5684512726293
 30
0.0
 10
345.8130999365803
 20
526.7045310190996
 30
0.0
 10
345.832719678443
 20
526.8389937901993
 30
0.0
 10
345.8588888217746
 20
526.972391950273
 30
0.0
 10
345.8815325705637
 20
527.0878192834134
 30
0.0
 10
345.9090799670085
 20
527.2024495242703
 30
0.0
 10
345.9408107494055
 20
527.3158339134688
 30
0.0
 10
345.9631101858522
 20
527.3955170410109
 30
0.0
 10
345.9874757356683
 20
527.4745848605698
 30
0.0
 10
346.0139521678048
 20
527.5529411903853
 30
0.0
 10
346.0233375368698
 20
527.5807169522522
 30
0.0
 10
346.032988151308
 20
527.6084033110492
 30
0.0
 10
346.0426387657481
 20
527.6360896698451
 30
0.0
  0
SPLINE
  5
98
330
70
100
AcDbEntity
  8
0
 62
    18
420
        0
370
     9
100
AcDbSpline
210
0.0
220
0.0
230
1.0
 70
     8
 71
     3
 72
    38
 73
    34
 74
     0
 42
0.0000000001
 43
0.0000000001
 40
0.0
 40
0.0
 40
0.0
 40
0.0
 40
1.0
 40
1.0
 40
1.0
 40
2.0
 40
2.0
 40
2.0
 40
3.0
 40
3.0
 40
3.0
 40
4.0
 40
4.0
 40
4.0
 40
5.0
 40
5.0
 40
5.0
 40
6.0
 40
6.0
 40
6.0
 40
7.0
 40
7.0
 40
7.0
 40
8.0
 40
8.0
 40
8.0
 40
9.0
 40
9.0
 40
9.0
 40
10.0
 40
10.0
 40
10.0
 40
11.0
 40
11.0
 40
11.0
 40
11.0
 10
346.0373786558448
 20
515.8510593048549
 30
0.0
 10
346.0386153893342
 20
515.8475068649996
 30
0.0
 10
346.0398521228217
 20
515.8439544251478
 30
0.0
 10
346.0407826398569
 20
515.8412841431117
 30
0.0
 10
346.0510358072097
 20
515.8118608789163
 30
0.0
 10
346.0241101242882
 20
515.8895435959375
 30
0.0
 10
346.0039525573193
 20
515.9492281548
 30
0.0
 10
345.9598903241495
 20
516.079692062146
 30
0.0
 10
345.9481669413217
 20
516.1241586628229
 30
0.0
 10
345.9320507292687
 20
516.1879447571264
 30
0.0
 10
345.9078769186672
 20
516.2836218900475
 30
0.0
 10
345.873819657274
 20
516.4227660586193
 30
0.0
 10
345.8489264641958
 20
516.5525463692165
 30
0.0
 10
345.8185184909635
 20
516.7110779082476
 30
0.0
 10
345.8017847216197
 20
516.8556371263921
 30
0.0
 10
345.7933758665877
 20
517.0059589020229
 30
0.0
 10
345.7849207962536
 20
517.1571068503444
 30
0.0
 10
345.784882399621
 20
517.3140808725702
 30
0.0
 10
345.7933181245881
 20
517.465272294663
 30
0.0
 10
345.8010060034976
 20
517.6030602559895
 30
0.0
 10
345.8157321040089
 20
517.7360454515429
 30
0.0
 10
345.8420970757543
 20
517.8810146919704
 30
0.0
 10
345.8653423463184
 20
518.0088300846573
 30
0.0
 10
345.8976350515113
 20
518.145961231462
 30
0.0
 10
345.9206420277315
 20
518.2416227928615
 30
0.0
 10
345.9380500679145
 20
518.3140043300563
 30
0.0
 10
345.950141964815
 20
518.3626442462755
 30
0.0
 10
345.9995660279947
 20
518.5094860664821
 30
0.0
 10
346.0222506697464
 20
518.5768834812515
 30
0.0
 10
346.0527997939808
 20
518.6649683414762
 30
0.0
 10
346.0408012663084
 20
518.6308411232448
 30
0.0
 10
346.0398905551265
 20
518.6282508021595
 30
0.0
 10
346.0387347226642
 20
518.6249564050549
 30
0.0
 10
346.0375788902002
 20
518.6216620079494
 30
0.0
  0
LINE
  5
99
330
70
100
AcDbEntity
  8
0
 62
    18
420
        0
370
     9
100
AcDbLine
 10
342.0926384908089
 20
514.2360714546511
 30
0.0
 11
338.1426386815074
 21
514.2360714546511
 31
0.0
  0
LINE
  5
9A
330
70
100
AcDbEntity
  8
0
 62
    18
420
        0
370
     9
100
AcDbLine
 10
346.0426387657062
 20
514.2360714546511
 30
0.0
 11
342.0926384908089
 21
514.2360714546511
 31
0.0
  0
LINE
  5
9B
330
70
100
AcDbEntity
  8
0
 62
    18
420
        0
370
     9
100
AcDbLine
 10
351.3658746426081
 20
533.0160049072528
 30
0.0
 11
350.746650369907
 21
533.0160049072528
 31
0.0
  0
SPLINE
  5
9C
330
70
100
AcDbEntity
  8
0
 62
    18
420
        0
370
     9
100
AcDbSpline
210
0.0
220
0.0
230
1.0
 70
     8
 71
     3
 72
     8
 73
     4
 74
     0
 42
0.0000000001
 43
0.0000000001
 40
0.0
 40
0.0
 40
0.0
 40
0.0
 40
1.0
 40
1.0
 40
1.0
 40
1.0
 10
351.3658746426263
 20
533.0160049073192
 30
0.0
 10
351.4497297586695
 20
532.8524017625668
 30
0.0
 10
351.582862403553
 20
532.7192759590152
 30
0.0
 10
351.7464698572912
 20
532.6354292504293
 30
0.0
  0
LINE
  5
9D
330
70
100
AcDbEntity
  8
0
 62
    18
420
        0
370
     9
100
AcDbLine
 10
351.7466496025081
 20
532.0160177818515
 30
0.0
 11
351.7464698573058
 21
532.6354292503538
 31
0.0
  0
LINE
  5
9E
330
70
100
AcDbEntity
  8
0
 62
    18
420
        0
370
     9
100
AcDbLine
 10
352.5466482435058
 20
532.0160177818515
 30
0.0
 11
351.7466496025081
 21
532.0160177818515
 31
0.0
  0
LINE
  5
9F
330
70
100
AcDbEntity
  8
0
 62
    18
420
        0
370
     9
100
AcDbLine
 10
352.5464694296061
 20
532.6354292503538
 30
0.0
 11
352.5466482435058
 21
532.0160177818515
 31
0.0
  0
SPLINE
  5
A0
330
70
100
AcDbEntity
  8
0
 62
    18
420
        0
370
     9
100
AcDbSpline
210
0.0
220
0.0
230
1.0
 70
     8
 71
     3
 72
     8
 73
     4
 74
     0
 42
0.0000000001
 43
0.0000000001
 40
0.0
 40
0.0
 40
0.0
 40
0.0
 40
1.0
 40
1.0
 40
1.0
 40
1.0
 10
352.5464694296352
 20
532.635429250361
 30
0.0
 10
352.7100767632583
 20
532.7192758057362
 30
0.0
 10
352.843209150491
 20
532.8524016774109
 30
0.0
 10
352.9270637129757
 20
533.0160049072528
 30
0.0
  0
LINE
  5
A1
330
70
100
AcDbEntity
  8
0
 62
    18
420
        0
370
     9
100
AcDbLine
 10
353.5466484074077
 20
533.0160049072528
 30
0.0
 11
352.9270637129084
 21
533.0160049072528
 31
0.0
  0
LWPOLYLINE
  5
A2
330
70
100
AcDbEntity
  8
0
 62
    18
420
        0
370
     9
100
AcDbPolyline
 90
        3
 70
     0
 43
0.0
 10
353.5466484074077
 20
533.8160184494536
 10
353.5466279184074
 20
533.4160116783532
 10
353.5466484074077
 20
533.0160049072528
  0
LINE
  5
A3
330
70
100
AcDbEntity
  8
0
 62
    18
420
        0
370
     9
100
AcDbLine
 10
352.9270637129084
 20
533.8160184494536
 30
0.0
 11
353.5466484074077
 21
533.8160184494536
 31
0.0
  0
SPLINE
  5
A4
330
70
100
AcDbEntity
  8
0
 62
    18
420
        0
370
     9
100
AcDbSpline
210
0.0
220
0.0
230
1.0
 70
     8
 71
     3
 72
     8
 73
     4
 74
     0
 42
0.0000000001
 43
0.0000000001
 40
0.0
 40
0.0
 40
0.0
 40
0.0
 40
1.0
 40
1.0
 40
1.0
 40
1.0
 10
352.9270637129157
 20
533.8160184494254
 30
0.0
 10
352.8432146663799
 20
533.9796405255137
 30
0.0
 10
352.710082477257
 20
534.1127870488398
 30
0.0
 10
352.5464694295733
 20
534.1966537109611
 30
0.0
  0
LINE
  5
A5
330
70
100
AcDbEntity
  8
0
 62
    18
420
        0
370
     9
100
AcDbLine
 10
352.5466482435058
 20
534.8160055748531
 30
0.0
 11
352.5464694296061
 21
534.1966537109538
 31
0.0
  0
LINE
  5
A6
330
70
100
AcDbEntity
  8
0
 62
    18
420
        0
370
     9
100
AcDbLine
 10
351.7466496025081
 20
534.8160055748531
 30
0.0
 11
352.5466482435058
 21
534.8160055748531
 31
0.0
  0
LINE
  5
A7
330
70
100
AcDbEntity
  8
0
 62
    18
420
        0
370
     9
100
AcDbLine
 10
351.7464698573058
 20
534.1966537109538
 30
0.0
 11
351.7466496025081
 21
534.8160055748531
 31
0.0
  0
SPLINE
  5
A8
330
70
100
AcDbEntity
  8
0
 62
    18
420
        0
370
     9
100
AcDbSpline
210
0.0
220
0.0
230
1.0
 70
     8
 71
     3
 72
     8
 73
     4
 74
     0
 42
0.0000000001
 43
0.0000000001
 40
0.0
 40
0.0
 40
0.0
 40
0.0
 40
1.0
 40
1.0
 40
1.0
 40
1.0
 10
351.7464698572803
 20
534.1966537109665
 30
0.0
 10
351.5828566887212
 20
534.112786896715
 30
0.0
 10
351.449724241651
 20
533.9796404412254
 30
0.0
 10
351.3658746426172
 20
533.8160184494272
 30
0.0
  0
LINE
  5
A9
330
70
100
AcDbEntity
  8
0
 62
    18
420
        0
370
     9
100
AcDbLine
 10
350.746650369907
 20
533.8160184494536
 30
0.0
 11
351.3658746426081
 21
533.8160184494536
 31
0.0
  0
LWPOLYLINE
  5
AA
330
70
100
AcDbEntity
  8
0
 62
    18
420
        0
370
     9
100
AcDbPolyline
 90
        3
 70
     0
 43
0.0
 10
350.746650369907
 20
533.0160049072528
 10
350.746628949506
 20
533.4160116783532
 10
350.746650369907
 20
533.8160184494536
  0
LINE
  5
AB
330
70
100
AcDbEntity
  8
0
 62
    18
420
        0
370
     9
100
AcDbLine
 10
352.5464694296061
 20
533.8160184494536
 30
0.0
 11
352.5464694296061
 21
534.1966537109538
 31
0.0
  0
LINE
  5
AC
330
70
100
AcDbEntity
  8
0
 62
    18
420
        0
370
     9
100
AcDbLine
 10
352.5464694296061
 20
533.8160184494536
 30
0.0
 11
352.9270637129084
 21
533.8160184494536
 31
0.0
  0
LINE
  5
AD
330
70
100
AcDbEntity
  8
0
 62
    18
420
        0
370
     9
100
AcDbLine
 10
352.5464694296061
 20
533.0160049072528
 30
0.0
 11
352.5464694296061
 21
532.6354292503538
 31
0.0
  0
LINE
  5
AE
330
70
100
AcDbEntity
  8
0
 62
    18
420
        0
370
     9
100
AcDbLine
 10
352.5464694296061
 20
533.0160049072528
 30
0.0
 11
352.9270637129084
 21
533.0160049072528
 31
0.0
  0
LINE
  5
AF
330
70
100
AcDbEntity
  8
0
 62
    18
420
        0
370
     9
100
AcDbLine
 10
351.7464698573058
 20
533.8160184494536
 30
0.0
 11
351.7464698573058
 21
534.1966537109538
 31
0.0
  0
LINE
  5
B0
330
70
100
AcDbEntity
  8
0
 62
    18
420
        0
370
     9
100
AcDbLine
 10
351.7464698573058
 20
533.8160184494536
 30
0.0
 11
351.3658746426081
 21
533.8160184494536
 31
0.0
  0
LINE
  5
B1
330
70
100
AcDbEntity
  8
0
 62
    18
420
        0
370
     9
100
AcDbLine
 10
351.7476321478061
 20
534.8160055748531
 30
0.0
 11
351.7476321478061
 21
533.8160184494536
 31
0.0
  0
LINE
  5
B2
330
70
100
AcDbEntity
  8
0
 62
    18
420
        0
370
     9
100
AcDbLine
 10
351.7476321478061
 20
533.8160184494536
 30
0.0
 11
351.7464698573058
 21
533.8160184494536
 31
0.0
  0
LINE
  5
B3
330
70
100
AcDbEntity
  8
0
 62
    18
420
        0
370
     9
100
AcDbLine
 10
351.7464698573058
 20
533.0160049072528
 30
0.0
 11
351.7464698573058
 21
532.6354292503538
 31
0.0
  0
LINE
  5
B4
330
70
100
AcDbEntity
  8
0
 62
    18
420
        0
370
     9
100
AcDbLine
 10
351.7476321478061
 20
533.0160049072528
 30
0.0
 11
351.7464698573058
 21
533.0160049072528
 31
0.0
  0
LINE
  5
B5
330
70
100
AcDbEntity
  8
0
 62
    18
420
        0
370
     9
100
AcDbLine
 10
351.7476321478061
 20
533.0160049072528
 30
0.0
 11
351.7476321478061
 21
532.0160177818515
 31
0.0
  0
LINE
  5
B6
330
70
100
AcDbEntity
  8
0
 62
    18
420
        0
370
     9
100
AcDbLine
 10
351.7464698573058
 20
533.0160049072528
 30
0.0
 11
351.3658746426081
 21
533.0160049072528
 31
0.0
  0
LINE
  5
B7
330
70
100
AcDbEntity
  8
0
 62
    18
420
        0
370
     9
100
AcDbLine
 10
350.7476329152087
 20
533.8160184494536
 30
0.0
 11
350.7476329152087
 21
533.0160049072528
 31
0.0
  0
LINE
  5
B8
330
70
100
AcDbEntity
  8
0
 62
    18
420
        0
370
     9
100
AcDbLine
 10
424.8094457482056
 20
545.9707764259538
 30
0.0
 11
424.7033122276061
 21
545.1360133758535
 31
0.0
  0
SPLINE
  5
B9
330
70
100
AcDbEntity
  8
0
 62
    18
420
        0
370
     9
100
AcDbSpline
210
0.0
220
0.0
230
1.0
 70
     8
 71
     3
 72
    17
 73
    13
 74
     0
 42
0.0000000001
 43
0.0000000001
 40
0.0
 40
0.0
 40
0.0
 40
0.0
 40
1.0
 40
1.0
 40
1.0
 40
2.0
 40
2.0
 40
2.0
 40
3.0
 40
3.0
 40
3.0
 40
4.0
 40
4.0
 40
4.0
 40
4.0
 10
424.9508428667723
 20
545.9430006615148
 30
0.0
 10
424.9407951997673
 20
545.9458048496026
 30
0.0
 10
424.9307475327604
 20
545.9486090376895
 30
0.0
 10
424.9206233118711
 20
545.9511068932043
 30
0.0
 10
424.9091782674076
 20
545.9539306233227
 30
0.0
 10
424.8976353913822
 20
545.9563628776414
 30
0.0
 10
424.886060068482
 20
545.9586170784469
 30
0.0
 10
424.873584040266
 20
545.9610466843505
 30
0.0
 10
424.8610703191697
 20
545.9632694490692
 30
0.0
 10
424.8485165928541
 20
545.9652331940151
 30
0.0
 10
424.835521556186
 20
545.9672659719299
 30
0.0
 10
424.8224836521949
 20
545.9690211989554
 30
0.0
 10
424.8094457482038
 20
545.970776425981
 30
0.0
  0
LINE
  5
BA
330
70
100
AcDbEntity
  8
0
 62
    18
420
        0
370
     9
100
AcDbLine
 10
424.8482409214084
 20
545.1360133758535
 30
0.0
 11
424.9508428668068
 21
545.9430006615539
 31
0.0
  0
SPLINE
  5
BB
330
70
100
AcDbEntity
  8
0
 62
    18
420
        0
370
     9
100
AcDbSpline
210
0.0
220
0.0
230
1.0
 70
     8
 71
     3
 72
    14
 73
    10
 74
     0
 42
0.0000000001
 43
0.0000000001
 40
0.0
 40
0.0
 40
0.0
 40
0.0
 40
1.0
 40
1.0
 40
1.0
 40
2.0
 40
2.0
 40
2.0
 40
3.0
 40
3.0
 40
3.0
 40
3.0
 10
424.7033122276007
 20
545.1360133759008
 30
0.0
 10
424.7267169828774
 20
545.1360789169984
 30
0.0
 10
424.750121738154
 20
545.136144458098
 30
0.0
 10
424.7735264991461
 20
545.1361325851912
 30
0.0
 10
424.7862148372369
 20
545.1361261485754
 30
0.0
 10
424.7989031770084
 20
545.1360969599054
 30
0.0
 10
424.8115915154158
 20
545.1360729805456
 30
0.0
 10
424.8238079849106
 20
545.1360498929607
 30
0.0
 10
424.8360244531413
 20
545.1360316344307
 30
0.0
 10
424.848240921372
 20
545.1360133759008
 30
0.0
  0
SPLINE
  5
BC
330
70
100
AcDbEntity
  8
0
 62
    18
420
        0
370
     9
100
AcDbSpline
210
0.0
220
0.0
230
1.0
 70
     8
 71
     3
 72
    17
 73
    13
 74
     0
 42
0.0000000001
 43
0.0000000001
 40
0.0
 40
0.0
 40
0.0
 40
0.0
 40
1.0
 40
1.0
 40
1.0
 40
2.0
 40
2.0
 40
2.0
 40
3.0
 40
3.0
 40
3.0
 40
4.0
 40
4.0
 40
4.0
 40
4.0
 10
350.899586575204
 20
545.1360133759008
 30
0.0
 10
350.8566863548622
 20
545.1392109416128
 30
0.0
 10
350.8137861345222
 20
545.1424085073231
 30
0.0
 10
350.7723902632552
 20
545.1524642578588
 30
0.0
 10
350.7281792615377
 20
545.1632038507368
 30
0.0
 10
350.6856841728695
 20
545.1817661285604
 30
0.0
 10
350.6459520478784
 20
545.2051547638403
 30
0.0
 10
350.6037043924534
 20
545.230024186364
 30
0.0
 10
350.5645806348075
 20
545.2603504476628
 30
0.0
 10
350.5325290654837
 20
545.29652868428
 30
0.0
 10
350.4985514601103
 20
545.3348809357613
 30
0.0
 10
350.472521541753
 20
545.3798096054788
 30
0.0
 10
350.4464916233974
 20
545.4247382751937
 30
0.0
  0
LINE
  5
BD
330
70
100
AcDbEntity
  8
0
 62
    18
420
        0
370
     9
100
AcDbLine
 10
350.1923588385089
 20
545.9699419609533
 30
0.0
 11
350.4464916234065
 21
545.4247382751518
 31
0.0
  0
LINE
  5
BE
330
70
100
AcDbEntity
  8
0
 62
    18
420
        0
370
     9
100
AcDbLine
 10
424.8094457482056
 20
545.9707764259538
 30
0.0
 11
350.1923588385089
 21
545.9699419609533
 31
0.0
  0
LINE
  5
BF
330
70
100
AcDbEntity
  8
0
 62
    18
420
        0
370
     9
100
AcDbLine
 10
350.8995865752077
 20
545.1360133758535
 30
0.0
 11
424.7033122276061
 21
545.1360133758535
 31
0.0
  0
LINE
  5
C0
330
70
100
AcDbEntity
  8
0
 62
    18
420
        0
370
     9
100
AcDbLine
 10
424.9508428668068
 20
545.9430006615539
 30
0.0
 11
425.2014505957085
 21
545.9430006615539
 31
0.0
  0
LINE
  5
C1
330
70
100
AcDbEntity
  8
0
 62
    18
420
        0
370
     9
100
AcDbLine
 10
425.2014505957085
 20
545.9430006615539
 30
0.0
 11
425.2296212410073
 21
545.1360133758535
 31
0.0
  0
LINE
  5
C2
330
70
100
AcDbEntity
  8
0
 62
    18
420
        0
370
     9
100
AcDbLine
 10
248.4257790540068
 20
545.9707764259538
 30
0.0
 11
248.531569847908
 21
545.1360133758535
 31
0.0
  0
LINE
  5
C3
330
70
100
AcDbEntity
  8
0
 62
    18
420
        0
370
     9
100
AcDbLine
 10
248.4257790540068
 20
545.9707764259538
 30
0.0
 11
333.9704744332085
 21
545.9707764259538
 31
0.0
  0
LINE
  5
C4
330
70
100
AcDbEntity
  8
0
 62
    18
420
        0
370
     9
100
AcDbLine
 10
333.7157407125087
 20
545.4247382751518
 30
0.0
 11
333.9704744332085
 21
545.9707764259538
 31
0.0
  0
SPLINE
  5
C5
330
70
100
AcDbEntity
  8
0
 62
    18
420
        0
370
     9
100
AcDbSpline
210
0.0
220
0.0
230
1.0
 70
     8
 71
     3
 72
    17
 73
    13
 74
     0
 42
0.0000000001
 43
0.0000000001
 40
0.0
 40
0.0
 40
0.0
 40
0.0
 40
1.0
 40
1.0
 40
1.0
 40
2.0
 40
2.0
 40
2.0
 40
3.0
 40
3.0
 40
3.0
 40
4.0
 40
4.0
 40
4.0
 40
4.0
 10
333.2625279483437
 20
545.1360133759008
 30
0.0
 10
333.3099067298172
 20
545.1397433162447
 30
0.0
 10
333.3572855112889
 20
545.1434732565867
 30
0.0
 10
333.4025795386242
 20
545.1557425133223
 30
0.0
 10
333.4481257993612
 20
545.1680800951008
 30
0.0
 10
333.4915640221516
 20
545.1890523655902
 30
0.0
 10
333.5319551453977
 20
545.2148107162948
 30
0.0
 10
333.5718848290089
 20
545.2402747963033
 30
0.0
 10
333.6088366372442
 20
545.2704162261097
 30
0.0
 10
333.638913817802
 20
545.306065427445
 30
0.0
 10
333.6691564192843
 20
545.3419106951533
 30
0.0
 10
333.6924485658692
 20
545.3833244851749
 30
0.0
 10
333.7157407124578
 20
545.4247382751937
 30
0.0
  0
LINE
  5
C6
330
70
100
AcDbEntity
  8
0
 62
    18
420
        0
370
     9
100
AcDbLine
 10
248.531569847908
 20
545.1360133758535
 30
0.0
 11
333.2625279483072
 21
545.1360133758535
 31
0.0
  0
LINE
  5
C7
330
70
100
AcDbEntity
  8
0
 62
    18
420
        0
370
     9
100
AcDbLine
 10
333.2625279483072
 20
545.1360133758535
 30
0.0
 11
333.2633519360079
 21
545.1360133758535
 31
0.0
  0
LINE
  5
C8
330
70
100
AcDbEntity
  8
0
 62
    18
420
        0
370
     9
100
AcDbLine
 10
347.881908649706
 20
542.074659215551
 30
0.0
 11
347.8818946798074
 21
543.3642653099523
 31
0.0
  0
LINE
  5
C9
330
70
100
AcDbEntity
  8
0
 62
    18
420
        0
370
     9
100
AcDbLine
 10
347.8811114375076
 20
543.2618645302527
 30
0.0
 11
347.881908649706
 21
542.074659215551
 31
0.0
  0
LINE
  5
CA
330
70
100
AcDbEntity
  8
0
 62
    18
420
        0
370
     9
100
AcDbLine
 10
347.8832748999084
 20
543.2618645302527
 30
0.0
 11
347.8832748999084
 21
543.4860375992521
 31
0.0
  0
LINE
  5
CB
330
70
100
AcDbEntity
  8
0
 62
    18
420
        0
370
     9
100
AcDbLine
 10
345.2819102724061
 20
542.074659215551
 30
0.0
 11
347.881908649706
 21
542.074659215551
 31
0.0
  0
LINE
  5
CC
330
70
100
AcDbEntity
  8
0
 62
    18
420
        0
370
     9
100
AcDbLine
 10
345.2819102724061
 20
542.074659215551
 30
0.0
 11
345.2811130603077
 21
543.2618645302527
 31
0.0
  0
LINE
  5
CD
330
70
100
AcDbEntity
  8
0
 62
    18
420
        0
370
     9
100
AcDbLine
 10
345.2811130603077
 20
543.2618645302527
 30
0.0
 11
347.8821927031077
 21
543.2618645302527
 31
0.0
  0
LINE
  5
CE
330
70
100
AcDbEntity
  8
0
 62
    18
420
        0
370
     9
100
AcDbLine
 10
345.2811130603077
 20
543.2618645302527
 30
0.0
 11
345.2811130603077
 21
543.4860375992521
 31
0.0
  0
LINE
  5
CF
330
70
100
AcDbEntity
  8
0
 62
    18
420
        0
370
     9
100
AcDbLine
 10
347.8832748999084
 20
543.4860375992521
 30
0.0
 11
345.2811130603077
 21
543.4860375992521
 31
0.0
  0
LINE
  5
D0
330
70
100
AcDbEntity
  8
0
 62
    18
420
        0
370
     9
100
AcDbLine
 10
338.8819143922083
 20
542.074659215551
 30
0.0
 11
338.8819011209089
 21
543.3642653099523
 31
0.0
  0
LINE
  5
D1
330
70
100
AcDbEntity
  8
0
 62
    18
420
        0
370
     9
100
AcDbLine
 10
338.8811174129078
 20
543.2618645302527
 30
0.0
 11
338.8819143922083
 21
542.074659215551
 31
0.0
  0
LINE
  5
D2
330
70
100
AcDbEntity
  8
0
 62
    18
420
        0
370
     9
100
AcDbLine
 10
338.8832808753068
 20
543.2618645302527
 30
0.0
 11
338.8811174129078
 21
543.4860375992521
 31
0.0
  0
LINE
  5
D3
330
70
100
AcDbEntity
  8
0
 62
    18
420
        0
370
     9
100
AcDbLine
 10
338.8819192816063
 20
543.3643845192527
 30
0.0
 11
338.8811174129078
 21
543.4860375992521
 31
0.0
  0
LINE
  5
D4
330
70
100
AcDbEntity
  8
0
 62
    18
420
        0
370
     9
100
AcDbLine
 10
336.2819160440086
 20
542.074659215551
 30
0.0
 11
338.8819143922083
 21
542.074659215551
 31
0.0
  0
LINE
  5
D5
330
70
100
AcDbEntity
  8
0
 62
    18
420
        0
370
     9
100
AcDbLine
 10
336.2819160440086
 20
542.074659215551
 30
0.0
 11
336.2811190648063
 21
543.2618645302527
 31
0.0
  0
LINE
  5
D6
330
70
100
AcDbEntity
  8
0
 62
    18
420
        0
370
     9
100
AcDbLine
 10
336.2832826144077
 20
543.2618645302527
 30
0.0
 11
338.8821991441073
 21
543.2618645302527
 31
0.0
  0
LINE
  5
D7
330
70
100
AcDbEntity
  8
0
 62
    18
420
        0
370
     9
100
AcDbLine
 10
336.2811190648063
 20
543.2618645302527
 30
0.0
 11
336.2811190648063
 21
543.4860375992521
 31
0.0
  0
LINE
  5
D8
330
70
100
AcDbEntity
  8
0
 62
    18
420
        0
370
     9
100
AcDbLine
 10
336.2811190648063
 20
543.4860375992521
 30
0.0
 11
338.8811174129078
 21
543.4860375992521
 31
0.0
  0
SPLINE
  5
D9
330
70
100
AcDbEntity
  8
0
 62
    18
420
        0
370
     9
100
AcDbSpline
210
0.0
220
0.0
230
1.0
 70
     8
 71
     3
 72
     8
 73
     4
 74
     0
 42
0.0000000001
 43
0.0000000001
 40
0.0
 40
0.0
 40
0.0
 40
0.0
 40
1.0
 40
1.0
 40
1.0
 40
1.0
 10
424.8096692656563
 20
546.1360005013021
 30
0.0
 10
424.8094549553934
 20
546.0809260873666
 30
0.0
 10
424.8093804493455
 20
546.0258512181353
 30
0.0
 10
424.8094457482402
 20
545.9707764259401
 30
0.0
  0
LINE
  5
DA
330
70
100
AcDbEntity
  8
0
 62
    18
420
        0
370
     9
100
AcDbLine
 10
350.115141021206
 20
546.1360005012521
 30
0.0
 11
424.8096692656072
 21
546.1360005012521
 31
0.0
  0
SPLINE
  5
DB
330
70
100
AcDbEntity
  8
0
 62
    18
420
        0
370
     9
100
AcDbSpline
210
0.0
220
0.0
230
1.0
 70
     8
 71
     3
 72
    17
 73
    13
 74
     0
 42
0.0000000001
 43
0.0000000001
 40
0.0
 40
0.0
 40
0.0
 40
0.0
 40
1.0
 40
1.0
 40
1.0
 40
2.0
 40
2.0
 40
2.0
 40
3.0
 40
3.0
 40
3.0
 40
4.0
 40
4.0
 40
4.0
 40
4.0
 10
350.115141021186
 20
546.1360005012966
 30
0.0
 10
350.1174059746572
 20
546.1315436831982
 30
0.0
 10
350.1196709281285
 20
546.1270868650999
 30
0.0
 10
350.1218502690154
 20
546.1225894562231
 30
0.0
 10
350.1278267405887
 20
546.1102560775916
 30
0.0
 10
350.1331593735776
 20
546.097617441178
 30
0.0
 10
350.1387472544848
 20
546.0850981346602
 30
0.0
 10
350.1456246156322
 20
546.0696898262749
 30
0.0
 10
350.1528886210526
 20
546.0544622763527
 30
0.0
 10
350.1600838546692
 20
546.0392025581832
 30
0.0
 10
350.1709466823359
 20
546.0161645725447
 30
0.0
 10
350.1816527604133
 20
545.9930532667486
 30
0.0
 10
350.1923588384925
 20
545.9699419609533
 30
0.0
  0
SPLINE
  5
DC
330
70
100
AcDbEntity
  8
0
 62
    18
420
        0
370
     9
100
AcDbSpline
210
0.0
220
0.0
230
1.0
 70
     8
 71
     3
 72
    17
 73
    13
 74
     0
 42
0.0000000001
 43
0.0000000001
 40
0.0
 40
0.0
 40
0.0
 40
0.0
 40
1.0
 40
1.0
 40
1.0
 40
2.0
 40
2.0
 40
2.0
 40
3.0
 40
3.0
 40
3.0
 40
4.0
 40
4.0
 40
4.0
 40
4.0
 10
424.8096692656218
 20
546.1360005012966
 30
0.0
 10
424.8281033998227
 20
546.132827019278
 30
0.0
 10
424.8465375340238
 20
546.1296535372603
 30
0.0
 10
424.8625907396017
 20
546.1214569679714
 30
0.0
 10
424.8805482426905
 20
546.1122880878028
 30
0.0
 10
424.8955264423184
 20
546.0968337183767
 30
0.0
 10
424.9077934120832
 20
546.0799125305639
 30
0.0
 10
424.9217305299171
 20
546.0606875228477
 30
0.0
 10
424.932167892337
 20
546.0395690919085
 30
0.0
 10
424.9387133215605
 20
546.0173872581945
 30
0.0
 10
424.9457857663328
 20
545.9934194191873
 30
0.0
 10
424.9483143165525
 20
545.9682100403515
 30
0.0
 10
424.9508428667723
 20
545.9430006615148
 30
0.0
  0
SPLINE
  5
DD
330
70
100
AcDbEntity
  8
0
 62
    18
420
        0
370
     9
100
AcDbSpline
210
0.0
220
0.0
230
1.0
 70
     8
 71
     3
 72
    17
 73
    13
 74
     0
 42
0.0000000001
 43
0.0000000001
 40
0.0
 40
0.0
 40
0.0
 40
0.0
 40
1.0
 40
1.0
 40
1.0
 40
2.0
 40
2.0
 40
2.0
 40
3.0
 40
3.0
 40
3.0
 40
4.0
 40
4.0
 40
4.0
 40
4.0
 10
333.9704744332521
 20
545.970776425981
 30
0.0
 10
333.9811805946592
 20
545.9939909778386
 30
0.0
 10
333.9918867560664
 20
546.0172055296961
 30
0.0
 10
334.0027743299543
 20
546.0403350464321
 30
0.0
 10
334.0100799406537
 20
546.0558550554488
 30
0.0
 10
334.0174672317808
 20
546.071336777658
 30
0.0
 10
334.024710469048
 20
546.0868862740035
 30
0.0
 10
334.0304585293125
 20
546.099225983281
 30
0.0
 10
334.0361158697779
 20
546.1116083742081
 30
0.0
 10
334.0419636854022
 20
546.1239007584071
 30
0.0
 10
334.0438854920685
 20
546.1279404866464
 30
0.0
 10
334.0458278704482
 20
546.1319704939723
 30
0.0
 10
334.0477702488261
 20
546.1360005012966
 30
0.0
  0
LINE
  5
DE
330
70
100
AcDbEntity
  8
0
 62
    18
420
        0
370
     9
100
AcDbLine
 10
333.7165025343056
 20
545.4247382751518
 30
0.0
 11
334.0485704877064
 21
546.1368349663525
 31
0.0
  0
LINE
  5
DF
330
70
100
AcDbEntity
  8
0
 62
    18
420
        0
370
     9
100
AcDbLine
 10
248.2845085953077
 20
545.9430006615539
 30
0.0
 11
248.386782715208
 21
545.1360133758535
 31
0.0
  0
SPLINE
  5
E0
330
70
100
AcDbEntity
  8
0
 62
    18
420
        0
370
     9
100
AcDbSpline
210
0.0
220
0.0
230
1.0
 70
     8
 71
     3
 72
    17
 73
    13
 74
     0
 42
0.0000000001
 43
0.0000000001
 40
0.0
 40
0.0
 40
0.0
 40
0.0
 40
1.0
 40
1.0
 40
1.0
 40
2.0
 40
2.0
 40
2.0
 40
3.0
 40
3.0
 40
3.0
 40
4.0
 40
4.0
 40
4.0
 40
4.0
 10
248.4257790540414
 20
545.970776425981
 30
0.0
 10
248.4127435917371
 20
545.9690214144639
 30
0.0
 10
248.3997081294329
 20
545.967266402943
 30
0.0
 10
248.3867156599718
 20
545.9652331940151
 30
0.0
 10
248.3741693157053
 20
545.9632697998176
 30
0.0
 10
248.3616630624638
 20
545.9610469852468
 30
0.0
 10
248.3491945360857
 20
545.9586170784469
 30
0.0
 10
248.3376314028101
 20
545.9563636175862
 30
0.0
 10
248.3261007163092
 20
545.9539320482408
 30
0.0
 10
248.3146685455986
 20
545.9511068932043
 30
0.0
 10
248.3045639193579
 20
545.9486098052548
 30
0.0
 10
248.2945362573509
 20
545.9458052333848
 30
0.0
 10
248.2845085953432
 20
545.9430006615148
 30
0.0
  0
SPLINE
  5
E1
330
70
100
AcDbEntity
  8
0
 62
    18
420
        0
370
     9
100
AcDbSpline
210
0.0
220
0.0
230
1.0
 70
     8
 71
     3
 72
    14
 73
    10
 74
     0
 42
0.0000000001
 43
0.0000000001
 40
0.0
 40
0.0
 40
0.0
 40
0.0
 40
1.0
 40
1.0
 40
1.0
 40
2.0
 40
2.0
 40
2.0
 40
3.0
 40
3.0
 40
3.0
 40
3.0
 10
248.3867827151971
 20
545.1360133759008
 30
0.0
 10
248.3989743481525
 20
545.1360316427098
 30
0.0
 10
248.4111659811087
 20
545.1360499095199
 30
0.0
 10
248.4233576153474
 20
545.1360729805456
 30
0.0
 10
248.4360310525754
 20
545.1360969633197
 30
0.0
 10
248.4487044911875
 20
545.1361261375304
 30
0.0
 10
248.4613779281335
 20
545.1361325851912
 30
0.0
 10
248.484775238524
 20
545.1361444886588
 30
0.0
 10
248.508172543231
 20
545.1360789322807
 30
0.0
 10
248.5315698479372
 20
545.1360133759008
 30
0.0
  0
LINE
  5
E2
330
70
100
AcDbEntity
  8
0
 62
    18
420
        0
370
     9
100
AcDbLine
 10
424.8096692656072
 20
546.1360005012521
 30
0.0
 11
425.0602844452077
 21
546.1360005012521
 31
0.0
  0
SPLINE
  5
E3
330
70
100
AcDbEntity
  8
0
 62
    18
420
        0
370
     9
100
AcDbSpline
210
0.0
220
0.0
230
1.0
 70
     8
 71
     3
 72
    17
 73
    13
 74
     0
 42
0.0000000001
 43
0.0000000001
 40
0.0
 40
0.0
 40
0.0
 40
0.0
 40
1.0
 40
1.0
 40
1.0
 40
2.0
 40
2.0
 40
2.0
 40
3.0
 40
3.0
 40
3.0
 40
4.0
 40
4.0
 40
4.0
 40
4.0
 10
425.2014505957304
 20
545.9430006615148
 30
0.0
 10
425.1989250476617
 20
545.9682099994043
 30
0.0
 10
425.1963994995967
 20
545.9934193372946
 30
0.0
 10
425.1893285010992
 20
546.0173872581945
 30
0.0
 10
425.1827843062983
 20
546.0395695204997
 30
0.0
 10
425.172346721818
 20
546.0606884514191
 30
0.0
 10
425.158408591622
 20
546.0799125305639
 30
0.0
 10
425.1461396346148
 20
546.0968344130005
 30
0.0
 10
425.1311583508413
 20
546.1122881080127
 30
0.0
 10
425.1131984685616
 20
546.1214569679714
 30
0.0
 10
425.0971466720256
 20
546.1296517140299
 30
0.0
 10
425.078715558593
 20
546.1328261076633
 30
0.0
 10
425.0602844451605
 20
546.1360005012966
 30
0.0
  0
SPLINE
  5
E4
330
70
100
AcDbEntity
  8
0
 62
    18
420
        0
370
     9
100
AcDbSpline
210
0.0
220
0.0
230
1.0
 70
     8
 71
     3
 72
     8
 73
     4
 74
     0
 42
0.0000000001
 43
0.0000000001
 40
0.0
 40
0.0
 40
0.0
 40
0.0
 40
1.0
 40
1.0
 40
1.0
 40
1.0
 10
248.4260100220481
 20
546.1360005012493
 30
0.0
 10
248.4257970785821
 20
546.080926083443
 30
0.0
 10
248.4257200890143
 20
546.0258512238806
 30
0.0
 10
248.4257790540496
 20
545.970776425971
 30
0.0
  0
LINE
  5
E5
330
70
100
AcDbEntity
  8
0
 62
    18
420
        0
370
     9
100
AcDbLine
 10
248.4260100220072
 20
546.1360005012521
 30
0.0
 11
334.0477702488079
 21
546.1360005012521
 31
0.0
  0
LINE
  5
E6
330
70
100
AcDbEntity
  8
0
 62
    18
420
        0
370
     9
100
AcDbLine
 10
248.1504353975069
 20
545.9430006615539
 30
0.0
 11
248.2845085953077
 21
545.9430006615539
 31
0.0
  0
LINE
  5
E7
330
70
100
AcDbEntity
  8
0
 62
    18
420
        0
370
     9
100
AcDbLine
 10
248.1504353975069
 20
545.9430006615539
 30
0.0
 11
248.0082634185083
 21
545.1360133758535
 31
0.0
  0
LINE
  5
E8
330
70
100
AcDbEntity
  8
0
 62
    18
420
        0
370
     9
100
AcDbLine
 10
248.0082634185083
 20
545.1360133758535
 30
0.0
 11
248.386782715208
 21
545.1360133758535
 31
0.0
  0
LINE
  5
E9
330
70
100
AcDbEntity
  8
0
 62
    18
420
        0
370
     9
100
AcDbLine
 10
272.9006382917069
 20
545.1360133758535
 30
0.0
 11
272.8646668886085
 21
541.013577329254
 31
0.0
  0
LINE
  5
EA
330
70
100
AcDbEntity
  8
0
 62
    18
420
        0
370
     9
100
AcDbLine
 10
272.8652107810067
 20
541.013577329254
 30
0.0
 11
272.9011821841068
 21
545.1360133758535
 31
0.0
  0
LINE
  5
EB
330
70
100
AcDbEntity
  8
0
 62
    18
420
        0
370
     9
100
AcDbLine
 10
272.8646668886085
 20
541.013577329254
 30
0.0
 11
272.8652107810067
 21
541.013577329254
 31
0.0
  0
LINE
  5
EC
330
70
100
AcDbEntity
  8
0
 62
    18
420
        0
370
     9
100
AcDbLine
 10
269.9352401589076
 20
541.013577329254
 30
0.0
 11
269.8992613052069
 21
545.1360133758535
 31
0.0
  0
LINE
  5
ED
330
70
100
AcDbEntity
  8
0
 62
    18
420
        0
370
     9
100
AcDbLine
 10
272.8646668886085
 20
541.013577329254
 30
0.0
 11
272.5600722526069
 21
540.4860166183525
 31
0.0
  0
LINE
  5
EE
330
70
100
AcDbEntity
  8
0
 62
    18
420
        0
370
     9
100
AcDbLine
 10
270.2398347949083
 20
540.4860166183525
 30
0.0
 11
269.9352401589076
 21
541.013577329254
 31
0.0
  0
LINE
  5
EF
330
70
100
AcDbEntity
  8
0
 62
    18
420
        0
370
     9
100
AcDbLine
 10
272.5600722526069
 20
540.4860166183525
 30
0.0
 11
270.2398347949083
 21
540.4860166183525
 31
0.0
  0
LINE
  5
F0
330
70
100
AcDbEntity
  8
0
 62
    18
420
        0
370
     9
100
AcDbLine
 10
272.8688094114059
 20
541.0197166077523
 30
0.0
 11
272.8652107810067
 21
541.013577329254
 31
0.0
  0
LINE
  5
F1
330
70
100
AcDbEntity
  8
0
 62
    18
420
        0
370
     9
100
AcDbLine
 10
272.8688094114059
 20
541.0197166077523
 30
0.0
 11
272.5610408281081
 21
540.4860166183525
 31
0.0
  0
LINE
  5
F2
330
70
100
AcDbEntity
  8
0
 62
    18
420
        0
370
     9
100
AcDbLine
 10
272.5610408281081
 20
540.4860166183525
 30
0.0
 11
272.5600722526069
 21
540.4860166183525
 31
0.0
  0
SPLINE
  5
F3
330
70
100
AcDbEntity
  8
0
 62
    18
420
        0
370
     9
100
AcDbSpline
210
0.0
220
0.0
230
1.0
 70
     8
 71
     3
 72
    17
 73
    13
 74
     0
 42
0.0000000001
 43
0.0000000001
 40
0.0
 40
0.0
 40
0.0
 40
0.0
 40
1.0
 40
1.0
 40
1.0
 40
2.0
 40
2.0
 40
2.0
 40
3.0
 40
3.0
 40
3.0
 40
4.0
 40
4.0
 40
4.0
 40
4.0
 10
248.2845085953432
 20
545.9430006615148
 30
0.0
 10
248.2870410353708
 20
545.9682114839315
 30
0.0
 10
248.2895734753993
 20
545.9934223063437
 30
0.0
 10
248.2966604922967
 20
546.0173872581945
 30
0.0
 10
248.3032222028678
 20
546.0395758715722
 30
0.0
 10
248.3136883218595
 20
546.0606964631161
 30
0.0
 10
248.3276549075799
 20
546.0799125305639
 30
0.0
 10
248.3399584679701
 20
546.0968405078838
 30
0.0
 10
248.3549785118048
 20
546.1122905085285
 30
0.0
 10
248.3729693387704
 20
546.1214569679714
 30
0.0
 10
248.3890644371695
 20
546.1296575396882
 30
0.0
 10
248.4075372296056
 20
546.1328290204938
 30
0.0
 10
248.4260100220399
 20
546.1360005012966
 30
0.0
  0
SPLINE
  5
F4
330
70
100
AcDbEntity
  8
0
 62
    18
420
        0
370
     9
100
AcDbSpline
210
0.0
220
0.0
230
1.0
 70
     8
 71
     3
 72
    17
 73
    13
 74
     0
 42
0.0000000001
 43
0.0000000001
 40
0.0
 40
0.0
 40
0.0
 40
0.0
 40
1.0
 40
1.0
 40
1.0
 40
2.0
 40
2.0
 40
2.0
 40
3.0
 40
3.0
 40
3.0
 40
4.0
 40
4.0
 40
4.0
 40
4.0
 10
248.2919368241983
 20
546.1360005012966
 30
0.0
 10
248.2734640317631
 20
546.1328290204938
 30
0.0
 10
248.2549912393279
 20
546.1296575396882
 30
0.0
 10
248.2388961409288
 20
546.1214569679714
 30
0.0
 10
248.220905313965
 20
546.1122905085285
 30
0.0
 10
248.2058852701293
 20
546.0968405078838
 30
0.0
 10
248.1935817097383
 20
546.0799125305639
 30
0.0
 10
248.1796151240178
 20
546.0606964631161
 30
0.0
 10
248.1691490050271
 20
546.0395758715722
 30
0.0
 10
248.1625872944542
 20
546.0173872581945
 30
0.0
 10
248.1555002775585
 20
545.9934223063437
 30
0.0
 10
248.1529678375291
 20
545.9682114839315
 30
0.0
 10
248.1504353975015
 20
545.9430006615148
 30
0.0
  0
LINE
  5
F5
330
70
100
AcDbEntity
  8
0
 62
    18
420
        0
370
     9
100
AcDbLine
 10
248.2919368242074
 20
546.1360005012521
 30
0.0
 11
248.4260100220072
 21
546.1360005012521
 31
0.0
  0
SPLINE
  5
F6
330
70
100
AcDbEntity
  8
0
 62
    18
420
        0
370
     9
100
AcDbSpline
210
0.0
220
0.0
230
1.0
 70
     8
 71
     3
 72
    17
 73
    13
 74
     0
 42
0.0000000001
 43
0.0000000001
 40
0.0
 40
0.0
 40
0.0
 40
0.0
 40
1.0
 40
1.0
 40
1.0
 40
2.0
 40
2.0
 40
2.0
 40
3.0
 40
3.0
 40
3.0
 40
4.0
 40
4.0
 40
4.0
 40
4.0
 10
425.2601611708342
 20
545.9430006615148
 30
0.0
 10
425.2588608027799
 20
545.943155273545
 30
0.0
 10
425.2575604347239
 20
545.9433098855742
 30
0.0
 10
425.2562570666014
 20
545.9434178940291
 30
0.0
 10
425.2524650944215
 20
545.9437321299255
 30
0.0
 10
425.2486477284691
 20
545.9436518945913
 30
0.0
 10
425.2448353265463
 20
545.9435967079626
 30
0.0
 10
425.2386583611168
 20
545.9435072929673
 30
0.0
 10
425.2324944269821
 20
545.9434836344162
 30
0.0
 10
425.2263280843435
 20
545.9434178940291
 30
0.0
 10
425.2180384899402
 20
545.9433295173057
 30
0.0
 10
425.2097445428335
 20
545.9431650894121
 30
0.0
 10
425.2014505957304
 20
545.9430006615148
 30
0.0
  0
LINE
  5
F7
330
70
100
AcDbEntity
  8
0
 62
    18
420
        0
370
     9
100
AcDbLine
 10
425.2883243655069
 20
545.1360133758535
 30
0.0
 11
425.2601611708087
 21
545.9430006615539
 31
0.0
  0
SPLINE
  5
F8
330
70
100
AcDbEntity
  8
0
 62
    18
420
        0
370
     9
100
AcDbSpline
210
0.0
220
0.0
230
1.0
 70
     8
 71
     3
 72
    17
 73
    13
 74
     0
 42
0.0000000001
 43
0.0000000001
 40
0.0
 40
0.0
 40
0.0
 40
0.0
 40
1.0
 40
1.0
 40
1.0
 40
2.0
 40
2.0
 40
2.0
 40
3.0
 40
3.0
 40
3.0
 40
4.0
 40
4.0
 40
4.0
 40
4.0
 10
425.2296212409674
 20
545.1360133759008
 30
0.0
 10
425.2379151958011
 20
545.1361778817108
 30
0.0
 10
425.2462091506349
 20
545.1363423875236
 30
0.0
 10
425.2544987295805
 20
545.1364306084133
 30
0.0
 10
425.2606650607194
 20
545.1364962328852
 30
0.0
 10
425.2668289705252
 20
545.1365196461838
 30
0.0
 10
425.2730059717833
 20
545.1366094223494
 30
0.0
 10
425.2768183958196
 20
545.1366648318908
 30
0.0
 10
425.2806358068046
 20
545.1367455211502
 30
0.0
 10
425.2844277118401
 20
545.1364306084133
 30
0.0
 10
425.285728597697
 20
545.1363225715531
 30
0.0
 10
425.2870264815937
 20
545.1361679737256
 30
0.0
 10
425.2883243654905
 20
545.1360133759008
 30
0.0
  0
SPLINE
  5
F9
330
70
100
AcDbEntity
  8
0
 62
    18
420
        0
370
     9
100
AcDbSpline
210
0.0
220
0.0
230
1.0
 70
     8
 71
     3
 72
     8
 73
     4
 74
     0
 42
0.0000000001
 43
0.0000000001
 40
0.0
 40
0.0
 40
0.0
 40
0.0
 40
1.0
 40
1.0
 40
1.0
 40
1.0
 10
425.2601611707832
 20
545.9430006614675
 30
0.0
 10
425.2564207052364
 20
546.0506803018943
 30
0.0
 10
425.1680290279291
 20
546.1360308073181
 30
0.0
 10
425.0602844451131
 20
546.1360005012502
 30
0.0
  0
SPLINE
  5
FA
330
70
100
AcDbEntity
  8
0
 62
    18
420
        0
370
     9
100
AcDbSpline
210
0.0
220
0.0
230
1.0
 70
     8
 71
     3
 72
    17
 73
    13
 74
     0
 42
0.0000000001
 43
0.0000000001
 40
0.0
 40
0.0
 40
0.0
 40
0.0
 40
1.0
 40
1.0
 40
1.0
 40
2.0
 40
2.0
 40
2.0
 40
3.0
 40
3.0
 40
3.0
 40
4.0
 40
4.0
 40
4.0
 40
4.0
 10
248.1504353975015
 20
545.9430006615148
 30
0.0
 10
248.1422485132753
 20
545.9455341029397
 30
0.0
 10
248.134061629049
 20
545.9480675443638
 30
0.0
 10
248.1262210105615
 20
545.9511068932043
 30
0.0
 10
248.1203080616415
 20
545.9533989973897
 30
0.0
 10
248.1145920451027
 20
545.9559788272772
 30
0.0
 10
248.1084886287408
 20
545.9586170784469
 30
0.0
 10
248.1045397673215
 20
545.9603240057858
 30
0.0
 10
248.1004287408705
 20
545.9620553881968
 30
0.0
 10
248.097931156035
 20
545.9652331940151
 30
0.0
 10
248.0966716590838
 20
545.9668357168547
 30
0.0
 10
248.0958224673113
 20
545.968806071417
 30
0.0
 10
248.094973275538
 20
545.970776425981
 30
0.0
  0
SPLINE
  5
FB
330
70
100
AcDbEntity
  8
0
 62
    18
420
        0
370
     9
100
AcDbSpline
210
0.0
220
0.0
230
1.0
 70
     8
 71
     3
 72
    14
 73
    10
 74
     0
 42
0.0000000001
 43
0.0000000001
 40
0.0
 40
0.0
 40
0.0
 40
0.0
 40
1.0
 40
1.0
 40
1.0
 40
2.0
 40
2.0
 40
2.0
 40
3.0
 40
3.0
 40
3.0
 40
3.0
 10
247.9479137157159
 20
545.1360133759008
 30
0.0
 10
247.9520959397423
 20
545.1360646424209
 30
0.0
 10
247.9562781637678
 20
545.1361159089383
 30
0.0
 10
247.9604604934412
 20
545.1361325851912
 30
0.0
 10
247.9666840673863
 20
545.1361574005213
 30
0.0
 10
247.9729078752716
 20
545.1361056214428
 30
0.0
 10
247.979131648417
 20
545.1360729805456
 30
0.0
 10
247.9888422948388
 20
545.1360220525648
 30
0.0
 10
247.9985528566958
 20
545.1360177142333
 30
0.0
 10
248.008263418551
 20
545.1360133759008
 30
0.0
  0
LINE
  5
FC
330
70
100
AcDbEntity
  8
0
 62
    18
420
        0
370
     9
100
AcDbLine
 10
425.2902615164057
 20
545.1360133758535
 30
0.0
 11
425.2620834206063
 21
545.9430006615539
 31
0.0
  0
LINE
  5
FD
330
70
100
AcDbEntity
  8
0
 62
    18
420
        0
370
     9
100
AcDbLine
 10
425.2601611708087
 20
545.9430006615539
 30
0.0
 11
425.2620834206063
 21
545.9430006615539
 31
0.0
  0
LINE
  5
FE
330
70
100
AcDbEntity
  8
0
 62
    18
420
        0
370
     9
100
AcDbLine
 10
425.2883243655069
 20
545.1360133758535
 30
0.0
 11
425.2902615164057
 21
545.1360133758535
 31
0.0
  0
SPLINE
  5
FF
330
70
100
AcDbEntity
  8
0
 62
    18
420
        0
370
     9
100
AcDbSpline
210
0.0
220
0.0
230
1.0
 70
     8
 71
     3
 72
    17
 73
    13
 74
     0
 42
0.0000000001
 43
0.0000000001
 40
0.0
 40
0.0
 40
0.0
 40
0.0
 40
1.0
 40
1.0
 40
1.0
 40
2.0
 40
2.0
 40
2.0
 40
3.0
 40
3.0
 40
3.0
 40
4.0
 40
4.0
 40
4.0
 40
4.0
 10
425.2620834206282
 20
545.9430006615148
 30
0.0
 10
425.2583211637102
 20
545.9685157419698
 30
0.0
 10
425.254558906794
 20
545.994030822425
 30
0.0
 10
425.2449172829328
 20
546.0173872581945
 30
0.0
 10
425.2352772953417
 20
546.0407397301687
 30
0.0
 10
425.2197599361989
 20
546.0619342900781
 30
0.0
 10
425.2011376713453
 20
546.0799125305639
 30
0.0
 10
425.1825203738044
 20
546.0978859755223
 30
0.0
 10
425.1607998267427
 20
546.1126448166733
 30
0.0
 10
425.1371297334372
 20
546.1214569679714
 30
0.0
 10
425.1134555355638
 20
546.1302706473652
 30
0.0
 10
425.0878311152591
 20
546.1331355743323
 30
0.0
 10
425.0622066949545
 20
546.1360005012966
 30
0.0
  0
LINE
  5
100
330
70
100
AcDbEntity
  8
0
 62
    18
420
        0
370
     9
100
AcDbLine
 10
425.0602844452077
 20
546.1360005012521
 30
0.0
 11
425.0622066949071
 21
546.1360005012521
 31
0.0
  0
SPLINE
  5
101
330
70
100
AcDbEntity
  8
0
 62
    18
420
        0
370
     9
100
AcDbSpline
210
0.0
220
0.0
230
1.0
 70
     8
 71
     3
 72
    26
 73
    22
 74
     0
 42
0.0000000001
 43
0.0000000001
 40
0.0
 40
0.0
 40
0.0
 40
0.0
 40
1.0
 40
1.0
 40
1.0
 40
2.0
 40
2.0
 40
2.0
 40
3.0
 40
3.0
 40
3.0
 40
4.0
 40
4.0
 40
4.0
 40
5.0
 40
5.0
 40
5.0
 40
6.0
 40
6.0
 40
6.0
 40
7.0
 40
7.0
 40
7.0
 40
7.0
 10
336.0890402739006
 20
543.2284859291549
 30
0.0
 10
336.0928219997877
 20
543.2288026517262
 30
0.0
 10
336.0966037256785
 20
543.2291193742948
 30
0.0
 10
336.1002894864487
 20
543.2299164406286
 30
0.0
 10
336.104340590251
 20
543.2307925144332
 30
0.0
 10
336.1082757613767
 20
543.2322488776017
 30
0.0
 10
336.1120758974976
 20
543.2339695564733
 30
0.0
 10
336.1211396450417
 20
543.2380735670658
 30
0.0
 10
336.129435211431
 20
543.2436812051419
 30
0.0
 10
336.1372600822779
 20
543.2497647873388
 30
0.0
 10
336.1549239179039
 20
543.263497844161
 30
0.0
 10
336.1701891649573
 20
543.2796562354515
 30
0.0
 10
336.1854807055625
 20
543.2964352241988
 30
0.0
 10
336.2074881825629
 20
543.3205834260388
 30
0.0
 10
336.2295501207736
 20
543.3460170566713
 30
0.0
 10
336.259089735202
 20
543.3589604965673
 30
0.0
 10
336.2628811973682
 20
543.3606218101504
 30
0.0
 10
336.2667958481179
 20
543.3620773580805
 30
0.0
 10
336.2708250690321
 20
543.3629540077673
 30
0.0
 10
336.2744615522461
 20
543.3637452083358
 30
0.0
 10
336.2781913592862
 20
543.3640648637883
 30
0.0
 10
336.2819211663282
 20
543.3643845192428
 30
0.0
  0
LINE
  5
102
330
70
100
AcDbEntity
  8
0
 62
    18
420
        0
370
     9
100
AcDbLine
 10
338.8819192816063
 20
543.3643845192527
 30
0.0
 11
339.2342930940085
 21
543.3643845192527
 31
0.0
  0
LINE
  5
103
330
70
100
AcDbEntity
  8
0
 62
    18
420
        0
370
     9
100
AcDbLine
 10
344.933629157109
 20
543.3643845192527
 30
0.0
 11
345.2819149290081
 21
543.3643845192527
 31
0.0
  0
SPLINE
  5
104
330
70
100
AcDbEntity
  8
0
 62
    18
420
        0
370
     9
100
AcDbSpline
210
0.0
220
0.0
230
1.0
 70
     8
 71
     3
 72
    26
 73
    22
 74
     0
 42
0.0000000001
 43
0.0000000001
 40
0.0
 40
0.0
 40
0.0
 40
0.0
 40
1.0
 40
1.0
 40
1.0
 40
2.0
 40
2.0
 40
2.0
 40
3.0
 40
3.0
 40
3.0
 40
4.0
 40
4.0
 40
4.0
 40
5.0
 40
5.0
 40
5.0
 40
6.0
 40
6.0
 40
6.0
 40
7.0
 40
7.0
 40
7.0
 40
7.0
 10
348.0747231562673
 20
543.2277110687728
 30
0.0
 10
348.0709427018082
 20
543.2280280178302
 30
0.0
 10
348.0671622473474
 20
543.2283449668857
 30
0.0
 10
348.0634774361788
 20
543.2291415802465
 30
0.0
 10
348.0594268718996
 20
543.2300172651821
 30
0.0
 10
348.0554918802809
 20
543.2314725629367
 30
0.0
 10
348.0516934116422
 20
543.2331946960903
 30
0.0
 10
348.0426240907054
 20
543.2373065052879
 30
0.0
 10
348.0343330539654
 20
543.2429394779819
 30
0.0
 10
348.0265160371619
 20
543.2490495316015
 30
0.0
 10
348.0088442441083
 20
543.2628624228645
 30
0.0
 10
347.9935950177987
 20
543.2791135246343
 30
0.0
 10
347.9783089180528
 20
543.2959583870387
 30
0.0
 10
347.9563200579396
 20
543.320189507418
 30
0.0
 10
347.9342548976238
 20
543.3456492644218
 30
0.0
 10
347.9047204648214
 20
543.3587816826339
 30
0.0
 10
347.9009317228592
 20
543.3604663381084
 30
0.0
 10
347.8970200641452
 20
543.3619481309206
 30
0.0
 10
347.8929885943471
 20
543.3628347984777
 30
0.0
 10
347.8893554914139
 20
543.3636338506021
 30
0.0
 10
347.8856250856261
 20
543.3639495802753
 30
0.0
 10
347.8818946798383
 20
543.3642653099523
 30
0.0
  0
LINE
  5
105
330
70
100
AcDbEntity
  8
0
 62
    18
420
        0
370
     9
100
AcDbLine
 10
348.0747101177076
 20
543.2277110687528
 30
0.0
 11
348.0851064716062
 21
543.429472791352
 31
0.0
  0
SPLINE
  5
106
330
70
100
AcDbEntity
  8
0
 62
    18
420
        0
370
     9
100
AcDbSpline
210
0.0
220
0.0
230
1.0
 70
     8
 71
     3
 72
    17
 73
    13
 74
     0
 42
0.0000000001
 43
0.0000000001
 40
0.0
 40
0.0
 40
0.0
 40
0.0
 40
1.0
 40
1.0
 40
1.0
 40
2.0
 40
2.0
 40
2.0
 40
3.0
 40
3.0
 40
3.0
 40
4.0
 40
4.0
 40
4.0
 40
4.0
 10
273.298722813006
 20
541.0134581200118
 30
0.0
 10
273.2455393841465
 20
541.0250443884824
 30
0.0
 10
273.1923559552888
 20
541.0366306569503
 30
0.0
 10
273.1390717719751
 20
541.0436776749111
 30
0.0
 10
273.0964733717228
 20
541.0493114610199
 30
0.0
 10
273.0538105761625
 20
541.0520440709488
 30
0.0
 10
273.0095955823617
 20
541.0541680923925
 30
0.0
 10
272.9776849494156
 20
541.0557010309485
 30
0.0
 10
272.9449658185867
 20
541.0569169722975
 30
0.0
 10
272.9161802028375
 20
541.0462406746374
 30
0.0
 10
272.8995105260456
 20
541.0400580578444
 30
0.0
 10
272.8841599687239
 20
541.0298873327783
 30
0.0
 10
272.8688094114023
 20
541.0197166077123
 30
0.0
  0
SPLINE
  5
107
330
70
100
AcDbEntity
  8
0
 62
    18
420
        0
370
     9
100
AcDbSpline
210
0.0
220
0.0
230
1.0
 70
     8
 71
     3
 72
    17
 73
    13
 74
     0
 42
0.0000000001
 43
0.0000000001
 40
0.0
 40
0.0
 40
0.0
 40
0.0
 40
1.0
 40
1.0
 40
1.0
 40
2.0
 40
2.0
 40
2.0
 40
3.0
 40
3.0
 40
3.0
 40
4.0
 40
4.0
 40
4.0
 40
4.0
 10
269.9323195313173
 20
541.0197166077123
 30
0.0
 10
269.9170905274468
 20
541.0298864830893
 30
0.0
 10
269.9018615235764
 20
541.0400563584635
 30
0.0
 10
269.8853063677489
 20
541.0462406746374
 30
0.0
 10
269.8566513034129
 20
541.0569450122884
 30
0.0
 10
269.8240231388591
 20
541.0557087679635
 30
0.0
 10
269.7922113631921
 20
541.0541680923925
 30
0.0
 10
269.7480510149435
 20
541.0520293633135
 30
0.0
 10
269.7054638750433
 20
541.0493039851762
 30
0.0
 10
269.6629363392531
 20
541.0436776749111
 30
0.0
 10
269.6097017657649
 20
541.0366348443885
 30
0.0
 10
269.5565605872198
 20
541.0250464822011
 30
0.0
 10
269.5034194086748
 20
541.0134581200118
 30
0.0
  0
LINE
  5
108
330
70
100
AcDbEntity
  8
0
 62
    18
420
        0
370
     9
100
AcDbLine
 10
269.9323195313082
 20
541.0197166077523
 30
0.0
 11
269.935776600707
 21
541.013577329254
 31
0.0
  0
LINE
  5
109
330
70
100
AcDbEntity
  8
0
 62
    18
420
        0
370
     9
100
AcDbLine
 10
272.9945528601074
 20
540.4860166183525
 30
0.0
 11
272.7360475157075
 21
540.4860166183525
 31
0.0
  0
SPLINE
  5
10A
330
70
100
AcDbEntity
  8
0
 62
    18
420
        0
370
     9
100
AcDbSpline
210
0.0
220
0.0
230
1.0
 70
     8
 71
     3
 72
    23
 73
    19
 74
     0
 42
0.0000000001
 43
0.0000000001
 40
0.0
 40
0.0
 40
0.0
 40
0.0
 40
1.0
 40
1.0
 40
1.0
 40
2.0
 40
2.0
 40
2.0
 40
3.0
 40
3.0
 40
3.0
 40
4.0
 40
4.0
 40
4.0
 40
5.0
 40
5.0
 40
5.0
 40
6.0
 40
6.0
 40
6.0
 40
6.0
 10
269.8082897161203
 20
540.4860166183944
 30
0.0
 10
269.8669580625246
 20
540.4861013142008
 30
0.0
 10
269.9256264089272
 20
540.4861860100072
 30
0.0
 10
269.9842947815614
 20
540.4861954323278
 30
0.0
 10
270.0088841837232
 20
540.4861993814611
 30
0.0
 10
270.0334735904926
 20
540.4861901075983
 30
0.0
 10
270.0580629800516
 20
540.4861358276821
 30
0.0
 10
270.0787930017377
 20
540.4860900671383
 30
0.0
 10
270.099523011193
 20
540.4860123194903
 30
0.0
 10
270.1202529762941
 20
540.4860166183944
 30
0.0
 10
270.1370515408835
 20
540.4860201020182
 30
0.0
 10
270.1538500763454
 20
540.4860774631552
 30
0.0
 10
270.1706487034517
 20
540.4861358276821
 30
0.0
 10
270.1833221599318
 20
540.4861798598703
 30
0.0
 10
270.1959956685714
 20
540.4862244631576
 30
0.0
 10
270.2086690162378
 20
540.4861954323278
 30
0.0
 10
270.2193805442712
 20
540.4861708954377
 30
0.0
 10
270.2300919573117
 20
540.4860937569155
 30
0.0
 10
270.2408033703523
 20
540.4860166183944
 30
0.0
  0
LINE
  5
10B
330
70
100
AcDbEntity
  8
0
 62
    18
420
        0
370
     9
100
AcDbLine
 10
272.9945528601074
 20
540.4860166183525
 30
0.0
 11
273.1505829190082
 21
540.4860166183525
 31
0.0
  0
LINE
  5
10C
330
70
100
AcDbEntity
  8
0
 62
    18
420
        0
370
     9
100
AcDbLine
 10
269.6508589481073
 20
540.4860166183525
 30
0.0
 11
269.8082897161075
 21
540.4860166183525
 31
0.0
  0
LINE
  5
10D
330
70
100
AcDbEntity
  8
0
 62
    18
420
        0
370
     9
100
AcDbLine
 10
272.4875855540085
 20
538.871386396052
 30
0.0
 11
272.4593404029074
 21
540.4860166183525
 31
0.0
  0
LINE
  5
10E
330
70
100
AcDbEntity
  8
0
 62
    18
420
        0
370
     9
100
AcDbLine
 10
410.8634415363085
 20
538.388827191954
 30
0.0
 11
411.284146020309
 21
538.388827191954
 31
0.0
  0
LINE
  5
10F
330
70
100
AcDbEntity
  8
0
 62
    18
420
        0
370
     9
100
AcDbLine
 10
272.9634094332078
 20
538.388827191954
 30
0.0
 11
273.3134153579067
 21
538.388827191954
 31
0.0
  0
LINE
  5
110
330
70
100
AcDbEntity
  8
0
 62
    18
420
        0
370
     9
100
AcDbLine
 10
425.2925339435059
 20
545.1360133758535
 30
0.0
 11
425.2662035917073
 21
545.894422876051
 31
0.0
  0
LINE
  5
111
330
70
100
AcDbEntity
  8
0
 62
    18
420
        0
370
     9
100
AcDbLine
 10
425.2662035917073
 20
545.894422876051
 30
0.0
 11
425.268923053607
 21
545.894422876051
 31
0.0
  0
LINE
  5
112
330
70
100
AcDbEntity
  8
0
 62
    18
420
        0
370
     9
100
AcDbLine
 10
425.268923053607
 20
545.894422876051
 30
0.0
 11
425.2954396700078
 21
545.1360133758535
 31
0.0
  0
LINE
  5
113
330
70
100
AcDbEntity
  8
0
 62
    18
420
        0
370
     9
100
AcDbLine
 10
425.2925339435059
 20
545.1360133758535
 30
0.0
 11
425.2954396700078
 21
545.1360133758535
 31
0.0
  0
SPLINE
  5
114
330
70
100
AcDbEntity
  8
0
 62
    18
420
        0
370
     9
100
AcDbSpline
210
0.0
220
0.0
230
1.0
 70
     8
 71
     3
 72
    17
 73
    13
 74
     0
 42
0.0000000001
 43
0.0000000001
 40
0.0
 40
0.0
 40
0.0
 40
0.0
 40
1.0
 40
1.0
 40
1.0
 40
2.0
 40
2.0
 40
2.0
 40
3.0
 40
3.0
 40
3.0
 40
4.0
 40
4.0
 40
4.0
 40
4.0
 10
248.8289001678177
 20
547.1994069687353
 30
0.0
 10
248.8450917414666
 20
547.2206159529369
 30
0.0
 10
248.8612833151147
 20
547.2418249371357
 30
0.0
 10
248.8806593512254
 20
547.2597864738927
 30
0.0
 10
248.899206993523
 20
547.2769800916712
 30
0.0
 10
248.9206726250677
 20
547.2911980057552
 30
0.0
 10
248.9434155915933
 20
547.3028806320662
 30
0.0
 10
248.9651428562047
 20
547.3140415117586
 30
0.0
 10
248.9880359117924
 20
547.3228884991285
 30
0.0
 10
249.0116554592805
 20
547.3280337921606
 30
0.0
 10
249.0341729937818
 20
547.3329390221815
 30
0.0
 10
249.0573508100497
 20
547.3344799183705
 30
0.0
 10
249.0805286263176
 20
547.3360208145614
 30
0.0
  0
LINE
  5
115
330
70
100
AcDbEntity
  8
0
 62
    18
420
        0
370
     9
100
AcDbLine
 10
249.0805286263076
 20
547.3360208145532
 30
0.0
 11
424.2185029482061
 21
547.3360208145532
 31
0.0
  0
SPLINE
  5
116
330
70
100
AcDbEntity
  8
0
 62
    18
420
        0
370
     9
100
AcDbSpline
210
0.0
220
0.0
230
1.0
 70
     8
 71
     3
 72
    17
 73
    13
 74
     0
 42
0.0000000001
 43
0.0000000001
 40
0.0
 40
0.0
 40
0.0
 40
0.0
 40
1.0
 40
1.0
 40
1.0
 40
2.0
 40
2.0
 40
2.0
 40
3.0
 40
3.0
 40
3.0
 40
4.0
 40
4.0
 40
4.0
 40
4.0
 10
424.2185029481606
 20
547.3360208145614
 30
0.0
 10
424.2416806467808
 20
547.3344798734078
 30
0.0
 10
424.2648583454046
 20
547.3329389322525
 30
0.0
 10
424.2873761151968
 20
547.3280337921606
 30
0.0
 10
424.3109936391119
 20
547.3228890880228
 30
0.0
 10
424.3338851990301
 20
547.3140435495333
 30
0.0
 10
424.3556085323034
 20
547.3028806320662
 30
0.0
 10
424.3783422312935
 20
547.2911985203763
 30
0.0
 10
424.3997965065936
 20
547.2769784511974
 30
0.0
 10
424.4183349703489
 20
547.2597864738927
 30
0.0
 10
424.4377053071402
 20
547.2418230441935
 30
0.0
 10
424.4538922798674
 20
547.2206150064639
 30
0.0
 10
424.4700792525946
 20
547.1994069687353
 30
0.0
  0
LINE
  5
117
330
70
100
AcDbEntity
  8
0
 62
    18
420
        0
370
     9
100
AcDbLine
 10
425.218020687007
 20
546.0473087898544
 30
0.0
 11
424.4700792526055
 21
547.1994069687544
 31
0.0
  0
LINE
  5
118
330
70
100
AcDbEntity
  8
0
 62
    18
420
        0
370
     9
100
AcDbLine
 10
248.0984452461071
 20
545.9649351707512
 30
0.0
 11
248.1145086979086
 21
546.0558918587521
 31
0.0
  0
LINE
  5
119
330
70
100
AcDbEntity
  8
0
 62
    18
420
        0
370
     9
100
AcDbLine
 10
248.1145086979086
 20
546.0558918587521
 30
0.0
 11
248.1583702658063
 21
546.1672333351526
 31
0.0
  0
LINE
  5
11A
330
70
100
AcDbEntity
  8
0
 62
    18
420
        0
370
     9
100
AcDbLine
 10
248.8289001678077
 20
547.1994069687544
 30
0.0
 11
248.1583702658063
 21
546.1672333351526
 31
0.0
  0
LINE
  5
11B
330
70
100
AcDbEntity
  8
0
 62
    18
420
        0
370
     9
100
AcDbLine
 10
425.2207103466061
 20
546.0473087898544
 30
0.0
 11
425.218020687007
 21
546.0473087898544
 31
0.0
  0
SPLINE
  5
11C
330
70
100
AcDbEntity
  8
0
 62
    18
420
        0
370
     9
100
AcDbSpline
210
0.0
220
0.0
230
1.0
 70
     8
 71
     3
 72
     8
 73
     4
 74
     0
 42
0.0000000001
 43
0.0000000001
 40
0.0
 40
0.0
 40
0.0
 40
0.0
 40
1.0
 40
1.0
 40
1.0
 40
1.0
 10
425.2689230535688
 20
545.8944228760101
 30
0.0
 10
425.2670187150015
 20
545.9488148571917
 30
0.0
 10
425.2503526876425
 20
546.0016640121103
 30
0.0
 10
425.2207103465261
 20
546.047308789859
 30
0.0
  0
LINE
  5
11D
330
70
100
AcDbEntity
  8
0
 62
    18
420
        0
370
     9
100
AcDbLine
 10
424.4724857901055
 20
547.1994069687544
 30
0.0
 11
425.2207103466061
 21
546.0473087898544
 31
0.0
  0
LINE
  5
11E
330
70
100
AcDbEntity
  8
0
 62
    18
420
        0
370
     9
100
AcDbLine
 10
424.4700792526055
 20
547.1994069687544
 30
0.0
 11
424.4724857901055
 21
547.1994069687544
 31
0.0
  0
LINE
  5
11F
330
70
100
AcDbEntity
  8
0
 62
    18
420
        0
370
     9
100
AcDbLine
 10
424.2208796834056
 20
547.3360208145532
 30
0.0
 11
424.2185029482061
 21
547.3360208145532
 31
0.0
  0
SPLINE
  5
120
330
70
100
AcDbEntity
  8
0
 62
    18
420
        0
370
     9
100
AcDbSpline
210
0.0
220
0.0
230
1.0
 70
     8
 71
     3
 72
    17
 73
    13
 74
     0
 42
0.0000000001
 43
0.0000000001
 40
0.0
 40
0.0
 40
0.0
 40
0.0
 40
1.0
 40
1.0
 40
1.0
 40
2.0
 40
2.0
 40
2.0
 40
3.0
 40
3.0
 40
3.0
 40
4.0
 40
4.0
 40
4.0
 40
4.0
 10
424.4724857901274
 20
547.1994069687353
 30
0.0
 10
424.4574376816854
 20
547.2193141029147
 30
0.0
 10
424.4423895732434
 20
547.2392212370932
 30
0.0
 10
424.424526402825
 20
547.2563294044958
 30
0.0
 10
424.4066671984492
 20
547.2734337734818
 30
0.0
 10
424.3859941819773
 20
547.2877404184227
 30
0.0
 10
424.3640276883779
 20
547.2996619812484
 30
0.0
 10
424.3420614210299
 20
547.3115834212822
 30
0.0
 10
424.3188017031971
 20
547.3211198283297
 30
0.0
 10
424.294729838246
 20
547.3267820946203
 30
0.0
 10
424.2706546986847
 20
547.3324451311773
 30
0.0
 10
424.2457671910269
 20
547.3342329728684
 30
0.0
 10
424.2208796833693
 20
547.3360208145614
 30
0.0
  0
LINE
  5
121
330
70
100
AcDbEntity
  8
0
 62
    18
420
        0
370
     9
100
AcDbLine
 10
424.5748567675073
 20
547.0465210548527
 30
0.0
 11
425.209430167506
 21
546.0692432991518
 31
0.0
  0
LINE
  5
122
330
70
100
AcDbEntity
  8
0
 62
    18
420
        0
370
     9
100
AcDbLine
 10
425.2687665914054
 20
545.977869378752
 30
0.0
 11
425.2981293295087
 21
545.1360133758535
 31
0.0
  0
LINE
  5
123
330
70
100
AcDbEntity
  8
0
 62
    18
420
        0
370
     9
100
AcDbLine
 10
425.271813878906
 20
545.977869378752
 30
0.0
 11
425.2687665914054
 21
545.977869378752
 31
0.0
  0
LINE
  5
124
330
70
100
AcDbEntity
  8
0
 62
    18
420
        0
370
     9
100
AcDbLine
 10
425.301385233306
 20
545.1360133758535
 30
0.0
 11
425.271813878906
 21
545.977869378752
 31
0.0
  0
LINE
  5
125
330
70
100
AcDbEntity
  8
0
 62
    18
420
        0
370
     9
100
AcDbLine
 10
424.3895608281055
 20
547.3360208145532
 30
0.0
 11
425.271813878906
 21
545.977869378752
 31
0.0
  0
SPLINE
  5
126
330
70
100
AcDbEntity
  8
0
 62
    18
420
        0
370
     9
100
AcDbSpline
210
0.0
220
0.0
230
1.0
 70
     8
 71
     3
 72
    23
 73
    19
 74
     0
 42
0.0000000001
 43
0.0000000001
 40
0.0
 40
0.0
 40
0.0
 40
0.0
 40
1.0
 40
1.0
 40
1.0
 40
2.0
 40
2.0
 40
2.0
 40
3.0
 40
3.0
 40
3.0
 40
4.0
 40
4.0
 40
4.0
 40
5.0
 40
5.0
 40
5.0
 40
6.0
 40
6.0
 40
6.0
 40
6.0
 10
424.5748567675291
 20
547.0465210548873
 30
0.0
 10
424.549075231871
 20
547.0868462648714
 30
0.0
 10
424.5232936962129
 20
547.1271714748527
 30
0.0
 10
424.4970876072584
 20
547.1672204605566
 30
0.0
 10
424.4803409460327
 20
547.1928132453931
 30
0.0
 10
424.4634209106898
 20
547.2182932289824
 30
0.0
 10
424.446744034165
 20
547.2439316383825
 30
0.0
 10
424.4379898180868
 20
547.2573900444285
 30
0.0
 10
424.4293026051418
 20
547.2708921051753
 30
0.0
 10
424.4206297491728
 20
547.2844031921859
 30
0.0
 10
424.4144284237663
 20
547.294063982984
 30
0.0
 10
424.4082344385569
 20
547.3037293885799
 30
0.0
 10
424.4020032976805
 20
547.3133710495458
 30
0.0
 10
424.3983084521659
 20
547.3190882125
 30
0.0
 10
424.3946005424622
 20
547.3247970266775
 30
0.0
 10
424.3908497785269
 20
547.3304775825972
 30
0.0
 10
424.3896284290858
 20
547.3323273241212
 30
0.0
 10
424.3884025356892
 20
547.3341740693403
 30
0.0
 10
424.3871766422926
 20
547.3360208145614
 30
0.0
  0
LINE
  5
127
330
70
100
AcDbEntity
  8
0
 62
    18
420
        0
370
     9
100
AcDbLine
 10
425.2773943637057
 20
545.9430006615539
 30
0.0
 11
425.3055873607081
 21
545.1360133758535
 31
0.0
  0
LINE
  5
128
330
70
100
AcDbEntity
  8
0
 62
    18
420
        0
370
     9
100
AcDbLine
 10
425.2754721140063
 20
545.9430006615539
 30
0.0
 11
425.3036502098057
 21
545.1360133758535
 31
0.0
  0
LINE
  5
129
330
70
100
AcDbEntity
  8
0
 62
    18
420
        0
370
     9
100
AcDbLine
 10
425.2754721140063
 20
545.9430006615539
 30
0.0
 11
425.2773943637057
 21
545.9430006615539
 31
0.0
  0
SPLINE
  5
12A
330
70
100
AcDbEntity
  8
0
 62
    18
420
        0
370
     9
100
AcDbSpline
210
0.0
220
0.0
230
1.0
 70
     8
 71
     3
 72
    29
 73
    25
 74
     0
 42
0.0000000001
 43
0.0000000001
 40
0.0
 40
0.0
 40
0.0
 40
0.0
 40
1.0
 40
1.0
 40
1.0
 40
2.0
 40
2.0
 40
2.0
 40
3.0
 40
3.0
 40
3.0
 40
4.0
 40
4.0
 40
4.0
 40
5.0
 40
5.0
 40
5.0
 40
6.0
 40
6.0
 40
6.0
 40
7.0
 40
7.0
 40
7.0
 40
8.0
 40
8.0
 40
8.0
 40
8.0
 10
422.8718850110708
 20
531.692543374681
 30
0.0
 10
422.8717507582332
 20
531.6796490036567
 30
0.0
 10
422.8716165053901
 20
531.6667546326352
 30
0.0
 10
422.8715199326216
 20
531.6538599602209
 30
0.0
 10
422.8714197918852
 20
531.6404888827601
 30
0.0
 10
422.8713601669041
 20
531.6271174812227
 30
0.0
 10
422.8713262175261
 20
531.6137460342861
 30
0.0
 10
422.8712910074355
 20
531.5998780365426
 30
0.0
 10
422.8712834152957
 20
531.5860099899664
 30
0.0
 10
422.8713038657843
 20
531.5721419922338
 30
0.0
 10
422.8713250195651
 20
531.5577970739814
 30
0.0
 10
422.8713761779145
 20
531.5434522079922
 30
0.0
 10
422.8714528773962
 20
531.5291074387069
 30
0.0
 10
422.8715221421643
 20
531.5161531520898
 30
0.0
 10
422.8716122364894
 20
531.5031989443368
 30
0.0
 10
422.8717434500395
 20
531.4902452103114
 30
0.0
 10
422.8718627965008
 20
531.4784630254298
 30
0.0
 10
422.8720161607888
 20
531.4666812324621
 30
0.0
 10
422.8721979354559
 20
531.4548996559596
 30
0.0
 10
422.8723475407768
 20
531.4452031092724
 30
0.0
 10
422.8725163904965
 20
531.4355067092129
 30
0.0
 10
422.8727716301619
 20
531.4258125893092
 30
0.0
 10
422.8729646831397
 20
531.4184803483831
 30
0.0
 10
422.8732071580707
 20
531.4111494118852
 30
0.0
 10
422.8734496329962
 20
531.403818475389
 30
0.0
  0
SPLINE
  5
12B
330
70
100
AcDbEntity
  8
0
 62
    18
420
        0
370
     9
100
AcDbSpline
210
0.0
220
0.0
230
1.0
 70
     8
 71
     3
 72
    17
 73
    13
 74
     0
 42
0.0000000001
 43
0.0000000001
 40
0.0
 40
0.0
 40
0.0
 40
0.0
 40
1.0
 40
1.0
 40
1.0
 40
2.0
 40
2.0
 40
2.0
 40
3.0
 40
3.0
 40
3.0
 40
4.0
 40
4.0
 40
4.0
 40
4.0
 10
422.8734496329962
 20
531.403818475389
 30
0.0
 10
422.8701818438276
 20
531.3800679297937
 30
0.0
 10
422.8669140546626
 20
531.3563173842021
 30
0.0
 10
422.8577736114202
 20
531.3347962967382
 30
0.0
 10
422.8483450693147
 20
531.3125968832118
 30
0.0
 10
422.8326678369594
 20
531.2927696838714
 30
0.0
 10
422.8142920230566
 20
531.2761453262782
 30
0.0
 10
422.795222950408
 20
531.2588937866003
 30
0.0
 10
422.7732478381803
 20
531.245091312564
 30
0.0
 10
422.7495762799917
 20
531.2367466560827
 30
0.0
 10
422.7253630497343
 20
531.2282110503056
 30
0.0
 10
422.6993748462718
 20
531.2253859004668
 30
0.0
 10
422.6733866428076
 20
531.222560750627
 30
0.0
  0
SPLINE
  5
12C
330
70
100
AcDbEntity
  8
0
 62
    18
420
        0
370
     9
100
AcDbSpline
210
0.0
220
0.0
230
1.0
 70
     8
 71
     3
 72
    26
 73
    22
 74
     0
 42
0.0000000001
 43
0.0000000001
 40
0.0
 40
0.0
 40
0.0
 40
0.0
 40
1.0
 40
1.0
 40
1.0
 40
2.0
 40
2.0
 40
2.0
 40
3.0
 40
3.0
 40
3.0
 40
4.0
 40
4.0
 40
4.0
 40
5.0
 40
5.0
 40
5.0
 40
6.0
 40
6.0
 40
6.0
 40
7.0
 40
7.0
 40
7.0
 40
7.0
 10
422.6717251633345
 20
531.8000701538558
 30
0.0
 10
422.671505181499
 20
531.7506778757461
 30
0.0
 10
422.6712851996653
 20
531.7012855976372
 30
0.0
 10
422.6712036226927
 20
531.6518930069433
 30
0.0
 10
422.671158371706
 20
531.6244947908753
 30
0.0
 10
422.6711557072558
 20
531.5970964786274
 30
0.0
 10
422.6711738203703
 20
531.569698201798
 30
0.0
 10
422.6711921567985
 20
531.5419621349028
 30
0.0
 10
422.6712317862802
 20
531.5142261043083
 30
0.0
 10
422.6713004802404
 20
531.4864901176916
 30
0.0
 10
422.6713668617958
 20
531.4596877918238
 30
0.0
 10
422.6714603840045
 20
531.4328855070298
 30
0.0
 10
422.6715910528837
 20
531.4060834518896
 30
0.0
 10
422.6717104870276
 20
531.3815858021126
 30
0.0
 10
422.6718609547951
 20
531.357088344198
 30
0.0
 10
422.6720380877195
 20
531.3325909248815
 30
0.0
 10
422.6721886475933
 20
531.3117685491898
 30
0.0
 10
422.6723584722403
 20
531.290946201384
 30
0.0
 10
422.6726341341673
 20
531.2701252571578
 30
0.0
 10
422.672844053759
 20
531.2542698790248
 30
0.0
 10
422.6731153482833
 20
531.238415314825
 30
0.0
 10
422.6733866428076
 20
531.222560750627
 30
0.0
  0
SPLINE
  5
12D
330
70
100
AcDbEntity
  8
0
 62
    18
420
        0
370
     9
100
AcDbSpline
210
0.0
220
0.0
230
1.0
 70
     8
 71
     3
 72
    17
 73
    13
 74
     0
 42
0.0000000001
 43
0.0000000001
 40
0.0
 40
0.0
 40
0.0
 40
0.0
 40
1.0
 40
1.0
 40
1.0
 40
2.0
 40
2.0
 40
2.0
 40
3.0
 40
3.0
 40
3.0
 40
4.0
 40
4.0
 40
4.0
 40
4.0
 10
422.8718850110708
 20
531.692543374681
 30
0.0
 10
422.8678188187005
 20
531.707005196521
 30
0.0
 10
422.8637526263301
 20
531.721467018363
 30
0.0
 10
422.8557545040785
 20
531.7333129517074
 30
0.0
 10
422.8455895077604
 20
531.7483682190604
 30
0.0
 10
422.8290734818037
 20
531.759198185894
 30
0.0
 10
422.8121462558447
 20
531.7680028549666
 30
0.0
 10
422.7912838041411
 20
531.7788544253171
 30
0.0
 10
422.7697967377171
 20
531.7866295589356
 30
0.0
 10
422.7475869749741
 20
531.7914274803634
 30
0.0
 10
422.7228952037039
 20
531.7967615840989
 30
0.0
 10
422.6973101835191
 20
531.7984158689787
 30
0.0
 10
422.6717251633345
 20
531.8000701538558
 30
0.0
  0
LINE
  5
12E
330
70
100
AcDbEntity
  8
0
 62
    18
420
        0
370
     9
100
AcDbLine
 10
421.6398868059077
 20
531.2225607506543
 30
0.0
 11
422.6733866428057
 21
531.2225607506543
 31
0.0
  0
SPLINE
  5
12F
330
70
100
AcDbEntity
  8
0
 62
    18
420
        0
370
     9
100
AcDbSpline
210
0.0
220
0.0
230
1.0
 70
     8
 71
     3
 72
    14
 73
    10
 74
     0
 42
0.0000000001
 43
0.0000000001
 40
0.0
 40
0.0
 40
0.0
 40
0.0
 40
1.0
 40
1.0
 40
1.0
 40
2.0
 40
2.0
 40
2.0
 40
3.0
 40
3.0
 40
3.0
 40
3.0
 10
421.9110134338079
 20
531.425037728929
 30
0.0
 10
421.909083090879
 20
531.4218891313548
 30
0.0
 10
421.9071527479481
 20
531.4187405337816
 30
0.0
 10
421.90517217862
 20
531.4156201950527
 30
0.0
 10
421.8787460847051
 20
531.3739865278703
 30
0.0
 10
421.843378336156
 20
531.337383697949
 30
0.0
 10
421.8034866546331
 20
531.308272229814
 30
0.0
 10
421.753658849535
 20
531.2719097475856
 30
0.0
 10
421.6967728277104
 20
531.2472352491067
 30
0.0
 10
421.6398868058859
 20
531.222560750627
 30
0.0
  0
SPLINE
  5
130
330
70
100
AcDbEntity
  8
0
 62
    18
420
        0
370
     9
100
AcDbSpline
210
0.0
220
0.0
230
1.0
 70
     8
 71
     3
 72
    20
 73
    16
 74
     0
 42
0.0000000001
 43
0.0000000001
 40
0.0
 40
0.0
 40
0.0
 40
0.0
 40
1.0
 40
1.0
 40
1.0
 40
2.0
 40
2.0
 40
2.0
 40
3.0
 40
3.0
 40
3.0
 40
4.0
 40
4.0
 40
4.0
 40
5.0
 40
5.0
 40
5.0
 40
5.0
 10
421.8708846067129
 20
531.8000701538558
 30
0.0
 10
421.8918316609724
 20
531.7721081576737
 30
0.0
 10
421.9127787152283
 20
531.7441461614926
 30
0.0
 10
421.9278815482794
 20
531.7129281631933
 30
0.0
 10
421.9419275001891
 20
531.6838947691703
 30
0.0
 10
421.9509185568931
 20
531.6520451317328
 30
0.0
 10
421.9547334407507
 20
531.6198853126998
 30
0.0
 10
421.9567608888992
 20
531.6027937397921
 30
0.0
 10
421.9573263428755
 20
531.5856145570442
 30
0.0
 10
421.9564172719656
 20
531.5684465042568
 30
0.0
 10
421.9554912844541
 20
531.5509589768034
 30
0.0
 10
421.9530353835489
 20
531.5334829973935
 30
0.0
 10
421.948720822209
 20
531.516590463304
 30
0.0
 10
421.9405718668549
 20
531.4846853644366
 30
0.0
 10
421.9257926503323
 20
531.4548615466828
 30
0.0
 10
421.9110134338079
 20
531.425037728929
 30
0.0
  0
LINE
  5
131
330
70
100
AcDbEntity
  8
0
 62
    18
420
        0
370
     9
100
AcDbLine
 10
421.8708846067056
 20
531.800070153853
 30
0.0
 11
422.6717251633053
 21
531.800070153853
 31
0.0
  0
SPLINE
  5
132
330
70
100
AcDbEntity
  8
0
 62
    18
420
        0
370
     9
100
AcDbSpline
210
0.0
220
0.0
230
1.0
 70
     8
 71
     3
 72
    11
 73
     7
 74
     0
 42
0.0000000001
 43
0.0000000001
 40
0.0
 40
0.0
 40
0.0
 40
0.0
 40
1.0
 40
1.0
 40
1.0
 40
2.0
 40
2.0
 40
2.0
 40
2.0
 10
421.8024584745108
 20
531.692543374681
 30
0.0
 10
421.8127357572557
 20
531.7117849289534
 30
0.0
 10
421.823013039997
 20
531.7310264832294
 30
0.0
 10
421.8347343896566
 20
531.7493466011519
 30
0.0
 10
421.8459094037389
 20
531.7668128129508
 30
0.0
 10
421.858397005224
 20
531.7834414834033
 30
0.0
 10
421.8708846067129
 20
531.8000701538558
 30
0.0
  0
SPLINE
  5
133
330
70
100
AcDbEntity
  8
0
 62
    18
420
        0
370
     9
100
AcDbSpline
210
0.0
220
0.0
230
1.0
 70
     8
 71
     3
 72
    11
 73
     7
 74
     0
 42
0.0000000001
 43
0.0000000001
 40
0.0
 40
0.0
 40
0.0
 40
0.0
 40
1.0
 40
1.0
 40
1.0
 40
2.0
 40
2.0
 40
2.0
 40
2.0
 10
421.842602202767
 20
531.5050867668615
 30
0.0
 10
421.854673822705
 20
531.4893629195903
 30
0.0
 10
421.8667454426431
 20
531.473639072321
 30
0.0
 10
421.8797433470427
 20
531.4587143532271
 30
0.0
 10
421.889797242693
 20
531.4471700639505
 30
0.0
 10
421.9004053382504
 20
531.4361038964398
 30
0.0
 10
421.9110134338079
 20
531.425037728929
 30
0.0
  0
SPLINE
  5
134
330
70
100
AcDbEntity
  8
0
 62
    18
420
        0
370
     9
100
AcDbSpline
210
0.0
220
0.0
230
1.0
 70
     8
 71
     3
 72
    26
 73
    22
 74
     0
 42
0.0000000001
 43
0.0000000001
 40
0.0
 40
0.0
 40
0.0
 40
0.0
 40
1.0
 40
1.0
 40
1.0
 40
2.0
 40
2.0
 40
2.0
 40
3.0
 40
3.0
 40
3.0
 40
4.0
 40
4.0
 40
4.0
 40
5.0
 40
5.0
 40
5.0
 40
6.0
 40
6.0
 40
6.0
 40
7.0
 40
7.0
 40
7.0
 40
7.0
 10
421.84263945567
 20
531.5050271622157
 30
0.0
 10
421.8497619511872
 20
531.5113419936415
 30
0.0
 10
421.8568844467027
 20
531.5176568250636
 30
0.0
 10
421.8632105086981
 20
531.5247562996374
 30
0.0
 10
421.869966203023
 20
531.5323379325918
 30
0.0
 10
421.8758136113392
 20
531.5408144053263
 30
0.0
 10
421.8801754807173
 20
531.550028669023
 30
0.0
 10
421.884083694309
 20
531.5582846041479
 30
0.0
 10
421.8867993065195
 20
531.5671328431817
 30
0.0
 10
421.8878644798933
 20
531.5761951080776
 30
0.0
 10
421.8889255035101
 20
531.585222067727
 30
0.0
 10
421.8883489229738
 20
531.5944613888587
 30
0.0
 10
421.8862775062262
 20
531.6033152214522
 30
0.0
 10
421.8843564619964
 20
531.6115263185447
 30
0.0
 10
421.8811497363312
 20
531.6194058639585
 30
0.0
 10
421.877001533383
 20
531.6267398468481
 30
0.0
 10
421.8723255103541
 20
531.6350070105682
 30
0.0
 10
421.8664531789654
 20
531.6425809435322
 30
0.0
 10
421.8599471543966
 20
531.6494492165075
 30
0.0
 10
421.8434880312452
 20
531.6668247658262
 30
0.0
 10
421.8229732528779
 20
531.6796840702527
 30
0.0
 10
421.8024584745108
 20
531.692543374681
 30
0.0
  0
LINE
  5
135
330
70
100
AcDbEntity
  8
0
 62
    18
420
        0
370
     9
100
AcDbLine
 10
418.1958112215069
 20
533.7536123863528
 30
0.0
 11
418.1958112215069
 21
530.8306602112543
 31
0.0
  0
LINE
  5
136
330
70
100
AcDbEntity
  8
0
 62
    18
420
        0
370
     9
100
AcDbLine
 10
421.8024584745071
 20
531.6925433746537
 30
0.0
 11
418.1958112215069
 21
533.7536123863528
 31
0.0
  0
SPLINE
  5
137
330
70
100
AcDbEntity
  8
0
 62
    18
420
        0
370
     9
100
AcDbSpline
210
0.0
220
0.0
230
1.0
 70
     8
 71
     3
 72
    14
 73
    10
 74
     0
 42
0.0000000001
 43
0.0000000001
 40
0.0
 40
0.0
 40
0.0
 40
0.0
 40
1.0
 40
1.0
 40
1.0
 40
2.0
 40
2.0
 40
2.0
 40
3.0
 40
3.0
 40
3.0
 40
3.0
 10
421.571363816136
 20
531.403818475389
 30
0.0
 10
421.6240897937313
 20
531.4145843714941
 30
0.0
 10
421.6768157713249
 20
531.4253502675983
 30
0.0
 10
421.727796206349
 20
531.4433959595199
 30
0.0
 10
421.7667172556994
 20
531.4571729558383
 30
0.0
 10
421.8046209033636
 20
531.4751930320198
 30
0.0
 10
421.8369546626745
 20
531.5004972092138
 30
0.0
 10
421.8388625217939
 20
531.5019902866133
 30
0.0
 10
421.8407509887328
 20
531.503508724415
 30
0.0
 10
421.84263945567
 20
531.5050271622157
 30
0.0
  0
LINE
  5
138
330
70
100
AcDbEntity
  8
0
 62
    18
420
        0
370
     9
100
AcDbLine
 10
418.1958112215069
 20
530.8306602112543
 30
0.0
 11
421.5713638161087
 21
531.4038184753544
 31
0.0
  0
SPLINE
  5
139
330
70
100
AcDbEntity
  8
0
 62
    18
420
        0
370
     9
100
AcDbSpline
210
0.0
220
0.0
230
1.0
 70
     8
 71
     3
 72
    17
 73
    13
 74
     0
 42
0.0000000001
 43
0.0000000001
 40
0.0
 40
0.0
 40
0.0
 40
0.0
 40
1.0
 40
1.0
 40
1.0
 40
2.0
 40
2.0
 40
2.0
 40
3.0
 40
3.0
 40
3.0
 40
4.0
 40
4.0
 40
4.0
 40
4.0
 10
421.6398868058859
 20
531.222560750627
 30
0.0
 10
421.6323469015842
 20
531.2323491571451
 30
0.0
 10
421.6248069972843
 20
531.242137563664
 30
0.0
 10
421.6184812878309
 20
531.2526610962367
 30
0.0
 10
421.6104288441601
 20
531.2660572463364
 30
0.0
 10
421.604343948311
 20
531.2806446349486
 30
0.0
 10
421.5988788102804
 20
531.2953976265426
 30
0.0
 10
421.5925653794802
 20
531.3124405614189
 30
0.0
 10
421.5870790345324
 20
531.3297044985647
 30
0.0
 10
421.5827185009657
 20
531.3472536674963
 30
0.0
 10
421.5780868239908
 20
531.3658940656123
 30
0.0
 10
421.5747253200643
 20
531.3848562705016
 30
0.0
 10
421.571363816136
 20
531.403818475389
 30
0.0
  0
SPLINE
  5
13A
330
70
100
AcDbEntity
  8
0
 62
    18
420
        0
370
     9
100
AcDbSpline
210
0.0
220
0.0
230
1.0
 70
     8
 71
     3
 72
    26
 73
    22
 74
     0
 42
0.0000000001
 43
0.0000000001
 40
0.0
 40
0.0
 40
0.0
 40
0.0
 40
1.0
 40
1.0
 40
1.0
 40
2.0
 40
2.0
 40
2.0
 40
3.0
 40
3.0
 40
3.0
 40
4.0
 40
4.0
 40
4.0
 40
5.0
 40
5.0
 40
5.0
 40
6.0
 40
6.0
 40
6.0
 40
7.0
 40
7.0
 40
7.0
 40
7.0
 10
418.3700803016363
 20
533.8005808464522
 30
0.0
 10
418.3295966226433
 20
533.8094760729327
 30
0.0
 10
418.2891129436502
 20
533.8183712994123
 30
0.0
 10
418.2480770443617
 20
533.8152435890661
 30
0.0
 10
418.2382641610456
 20
533.8144956620772
 30
0.0
 10
418.2284197002318
 20
533.8130602299843
 30
0.0
 10
418.2192432974516
 20
533.8095811478114
 30
0.0
 10
418.2157033197982
 20
533.8082390235149
 30
0.0
 10
418.2122627613535
 20
533.8065927668485
 30
0.0
 10
418.2091328595816
 20
533.8044551483626
 30
0.0
 10
418.2061897876701
 20
533.8024451284373
 30
0.0
 10
418.2035213919534
 20
533.8000006565716
 30
0.0
 10
418.2013395522772
 20
533.7971833817
 30
0.0
 10
418.19914622967
 20
533.7943512796291
 30
0.0
 10
418.1974445980304
 20
533.7911424401308
 30
0.0
 10
418.1962284539877
 20
533.7877658478237
 30
0.0
 10
418.1949023677207
 20
533.7840840037925
 30
0.0
 10
418.1941535151309
 20
533.780202705494
 30
0.0
 10
418.1938740705191
 20
533.7763217560278
 30
0.0
 10
418.1933289502303
 20
533.7687510811847
 30
0.0
 10
418.1945700858523
 20
533.7611817337765
 30
0.0
 10
418.1958112214743
 20
533.7536123863683
 30
0.0
  0
LINE
  5
13B
330
70
100
AcDbEntity
  8
0
 62
    18
420
        0
370
     9
100
AcDbLine
 10
418.3700803016072
 20
533.800580846454
 30
0.0
 11
421.8708846067056
 21
531.800070153853
 31
0.0
  0
SPLINE
  5
13C
330
70
100
AcDbEntity
  8
0
 62
    18
420
        0
370
     9
100
AcDbSpline
210
0.0
220
0.0
230
1.0
 70
     8
 71
     3
 72
    20
 73
    16
 74
     0
 42
0.0000000001
 43
0.0000000001
 40
0.0
 40
0.0
 40
0.0
 40
0.0
 40
1.0
 40
1.0
 40
1.0
 40
2.0
 40
2.0
 40
2.0
 40
3.0
 40
3.0
 40
3.0
 40
4.0
 40
4.0
 40
4.0
 40
5.0
 40
5.0
 40
5.0
 40
5.0
 10
422.6954552625357
 20
533.8005808464522
 30
0.0
 10
422.7000477991041
 20
533.8003306249029
 30
0.0
 10
422.7046403356726
 20
533.8000804033535
 30
0.0
 10
422.709127077931
 20
533.7992099396215
 30
0.0
 10
422.7138240225522
 20
533.7982986949582
 30
0.0
 10
422.7184050278046
 20
533.7967077304738
 30
0.0
 10
422.7227988933264
 20
533.7947395912642
 30
0.0
 10
422.7327545417356
 20
533.7902801689442
 30
0.0
 10
422.7417494375422
 20
533.783884377447
 30
0.0
 10
422.7498892043768
 20
533.7766197792507
 30
0.0
 10
422.772138655202
 20
533.7567625371994
 30
0.0
 10
422.7879989089615
 20
533.7304139033567
 30
0.0
 10
422.8010150884329
 20
533.7036636940474
 30
0.0
 10
422.8022031084983
 20
533.7012221338746
 30
0.0
 10
422.8033674354865
 20
533.6987772283082
 30
0.0
 10
422.8045317624746
 20
533.6963323227382
 30
0.0
  0
SPLINE
  5
13D
330
70
100
AcDbEntity
  8
0
 62
    18
420
        0
370
     9
100
AcDbSpline
210
0.0
220
0.0
230
1.0
 70
     8
 71
     3
 72
    11
 73
     7
 74
     0
 42
0.0000000001
 43
0.0000000001
 40
0.0
 40
0.0
 40
0.0
 40
0.0
 40
1.0
 40
1.0
 40
1.0
 40
2.0
 40
2.0
 40
2.0
 40
2.0
 10
422.8045317624746
 20
533.6963323227382
 30
0.0
 10
422.8232405823382
 20
533.6437768286368
 30
0.0
 10
422.8419494022018
 20
533.5912213345327
 30
0.0
 10
422.8551733587919
 20
533.5375455490584
 30
0.0
 10
422.8840933476367
 20
533.4201598705285
 30
0.0
 10
422.8867808644572
 20
533.2974161710962
 30
0.0
 10
422.8894683812796
 20
533.1746724716659
 30
0.0
  0
LINE
  5
13E
330
70
100
AcDbEntity
  8
0
 62
    18
420
        0
370
     9
100
AcDbLine
 10
422.8894683813068
 20
533.1746724716522
 30
0.0
 11
422.8718850111071
 21
531.6925433746537
 31
0.0
  0
LINE
  5
13F
330
70
100
AcDbEntity
  8
0
 62
    18
420
        0
370
     9
100
AcDbLine
 10
422.6954552625065
 20
533.800580846454
 30
0.0
 11
422.6717251633053
 21
531.800070153853
 31
0.0
  0
LINE
  5
140
330
70
100
AcDbEntity
  8
0
 62
    18
420
        0
370
     9
100
AcDbLine
 10
422.6954552625065
 20
533.800580846454
 30
0.0
 11
418.3700803016072
 21
533.800580846454
 31
0.0
  0
SPLINE
  5
141
330
70
100
AcDbEntity
  8
0
 62
    18
420
        0
370
     9
100
AcDbSpline
210
0.0
220
0.0
230
1.0
 70
     8
 71
     3
 72
    26
 73
    22
 74
     0
 42
0.0000000001
 43
0.0000000001
 40
0.0
 40
0.0
 40
0.0
 40
0.0
 40
1.0
 40
1.0
 40
1.0
 40
2.0
 40
2.0
 40
2.0
 40
3.0
 40
3.0
 40
3.0
 40
4.0
 40
4.0
 40
4.0
 40
5.0
 40
5.0
 40
5.0
 40
6.0
 40
6.0
 40
6.0
 40
7.0
 40
7.0
 40
7.0
 40
7.0
 10
418.1958112214743
 20
530.8306602112288
 30
0.0
 10
418.1956267246932
 20
530.826753642963
 30
0.0
 10
418.1954422279086
 20
530.8228470746989
 30
0.0
 10
418.196057090634
 20
530.8190373054967
 30
0.0
 10
418.1966796601391
 20
530.8151797840882
 30
0.0
 10
418.1981217533157
 20
530.8114215035393
 30
0.0
 10
418.2000133489309
 20
530.8079508415675
 30
0.0
 10
418.202092897085
 20
530.8041353280223
 30
0.0
 10
418.2047157123561
 20
530.8006674293128
 30
0.0
 10
418.2076725457846
 20
530.7975200287328
 30
0.0
 10
418.2111061209434
 20
530.7938651605446
 30
0.0
 10
418.2149901076063
 20
530.7906424725834
 30
0.0
 10
418.2190346811949
 20
530.7876852623458
 30
0.0
 10
418.2427974373276
 20
530.7703110041621
 30
0.0
 10
418.2721033650195
 20
530.7621005589298
 30
0.0
 10
418.3013635967909
 20
530.7557967773901
 30
0.0
 10
418.3580874744111
 20
530.7435762681543
 30
0.0
 10
418.4146396190462
 20
530.7385213231846
 30
0.0
 10
418.4713932965933
 20
530.7361868492598
 30
0.0
 10
418.5897574203027
 20
530.731318125815
 30
0.0
 10
418.7089981372955
 20
530.7382824405403
 30
0.0
 10
418.8282388542829
 20
530.7452467552648
 30
0.0
  0
LINE
  5
142
330
70
100
AcDbEntity
  8
0
 62
    18
420
        0
370
     9
100
AcDbLine
 10
418.8282388543084
 20
530.745246755252
 30
0.0
 11
421.6398868059077
 21
531.2225607506543
 31
0.0
  0
LINE
  5
143
330
70
100
AcDbEntity
  8
0
 62
    18
420
        0
370
     9
100
AcDbLine
 10
422.8930819129054
 20
533.7677386871537
 30
0.0
 11
422.8894683813068
 21
533.1746724716522
 31
0.0
  0
LINE
  5
144
330
70
100
AcDbEntity
  8
0
 62
    18
420
        0
370
     9
100
AcDbLine
 10
422.8931266163072
 20
533.8101175896536
 30
0.0
 11
422.8930819129054
 21
533.7677386871537
 31
0.0
  0
LINE
  5
145
330
70
100
AcDbEntity
  8
0
 62
    18
420
        0
370
     9
100
AcDbLine
 10
422.8931266163072
 20
533.8101175896536
 30
0.0
 11
422.8931266163072
 21
538.1232288948512
 31
0.0
  0
LINE
  5
146
330
70
100
AcDbEntity
  8
0
 62
    18
420
        0
370
     9
100
AcDbLine
 10
422.9054722284054
 20
538.1116655937539
 30
0.0
 11
422.8931266163072
 21
538.1232288948512
 31
0.0
  0
LINE
  5
147
330
70
100
AcDbEntity
  8
0
 62
    18
420
        0
370
     9
100
AcDbLine
 10
422.9066866730063
 20
530.6283024422518
 30
0.0
 11
422.9054722284054
 21
538.1116655937539
 31
0.0
  0
LINE
  5
148
330
70
100
AcDbEntity
  8
0
 62
    18
420
        0
370
     9
100
AcDbLine
 10
422.9038927053061
 20
530.6414154640542
 30
0.0
 11
422.9066866730063
 21
530.6283024422518
 31
0.0
  0
LINE
  5
149
330
70
100
AcDbEntity
  8
0
 62
    18
420
        0
370
     9
100
AcDbLine
 10
422.8734496330071
 20
531.4038184753544
 30
0.0
 11
422.9038927053061
 21
530.6414154640542
 31
0.0
  0
SPLINE
  5
14A
330
70
100
AcDbEntity
  8
0
 62
    18
420
        0
370
     9
100
AcDbSpline
210
0.0
220
0.0
230
1.0
 70
     8
 71
     3
 72
    17
 73
    13
 74
     0
 42
0.0000000001
 43
0.0000000001
 40
0.0
 40
0.0
 40
0.0
 40
0.0
 40
1.0
 40
1.0
 40
1.0
 40
2.0
 40
2.0
 40
2.0
 40
3.0
 40
3.0
 40
3.0
 40
4.0
 40
4.0
 40
4.0
 40
4.0
 10
262.7362656687456
 20
531.724431859634
 30
0.0
 10
262.7237945570578
 20
531.6906943705407
 30
0.0
 10
262.7113234453682
 20
531.6569568814448
 30
0.0
 10
262.6931119059282
 20
531.6265014282699
 30
0.0
 10
262.6718468869021
 20
531.5909395915951
 30
0.0
 10
262.6427550993613
 20
531.559852636673
 30
0.0
 10
262.6100975369173
 20
531.533100949905
 30
0.0
 10
262.5859266497282
 20
531.5133011867101
 30
0.0
 10
262.5598024507326
 20
531.495876259476
 30
0.0
 10
262.5312852953612
 20
531.4847019783483
 30
0.0
 10
262.507254991755
 20
531.4752858439333
 30
0.0
 10
262.481525502255
 20
531.4703081563648
 30
0.0
 10
262.455796012755
 20
531.4653304687963
 30
0.0
  0
LINE
  5
14B
330
70
100
AcDbEntity
  8
0
 62
    18
420
        0
370
     9
100
AcDbLine
 10
262.7402219270079
 20
531.0750988594545
 30
0.0
 11
262.7362656687073
 21
531.724431859654
 31
0.0
  0
SPLINE
  5
14C
330
70
100
AcDbEntity
  8
0
 62
    18
420
        0
370
     9
100
AcDbSpline
210
0.0
220
0.0
230
1.0
 70
     8
 71
     3
 72
    17
 73
    13
 74
     0
 42
0.0000000001
 43
0.0000000001
 40
0.0
 40
0.0
 40
0.0
 40
0.0
 40
1.0
 40
1.0
 40
1.0
 40
2.0
 40
2.0
 40
2.0
 40
3.0
 40
3.0
 40
3.0
 40
4.0
 40
4.0
 40
4.0
 40
4.0
 10
262.7402219270425
 20
531.0750988594518
 30
0.0
 10
262.7255568356486
 20
531.0752602990442
 30
0.0
 10
262.7108917442529
 20
531.0754217386357
 30
0.0
 10
262.6962262486159
 20
531.0755160919653
 30
0.0
 10
262.674225233246
 20
531.0756576397952
 30
0.0
 10
262.6522233080996
 20
531.0756482054975
 30
0.0
 10
262.6302215551095
 20
531.0756353012548
 30
0.0
 10
262.6029199259938
 20
531.0756192885837
 30
0.0
 10
262.575618561963
 20
531.075597932916
 30
0.0
 10
262.5483173226076
 20
531.0755160919653
 30
0.0
 10
262.5182441949401
 20
531.0754259417235
 30
0.0
 10
262.4881712185506
 20
531.0752624005881
 30
0.0
 10
262.4580982421594
 20
531.0750988594518
 30
0.0
  0
LINE
  5
14D
330
70
100
AcDbEntity
  8
0
 62
    18
420
        0
370
     9
100
AcDbLine
 10
262.4557960127077
 20
531.4653304687535
 30
0.0
 11
262.4580982422067
 21
531.0750988594545
 31
0.0
  0
SPLINE
  5
14E
330
70
100
AcDbEntity
  8
0
 62
    18
420
        0
370
     9
100
AcDbSpline
210
0.0
220
0.0
230
1.0
 70
     8
 71
     3
 72
    11
 73
     7
 74
     0
 42
0.0000000001
 43
0.0000000001
 40
0.0
 40
0.0
 40
0.0
 40
0.0
 40
1.0
 40
1.0
 40
1.0
 40
2.0
 40
2.0
 40
2.0
 40
2.0
 10
262.455796012755
 20
531.4653304687963
 30
0.0
 10
262.4551153468729
 20
531.4739125930227
 30
0.0
 10
262.4544346809908
 20
531.4824947172492
 30
0.0
 10
262.4537918065744
 20
531.4910796753393
 30
0.0
 10
262.4531938302662
 20
531.4990650631707
 30
0.0
 10
262.452628551071
 20
531.5070529028544
 30
0.0
 10
262.4520632718741
 20
531.515040742539
 30
0.0
  0
LINE
  5
14F
330
70
100
AcDbEntity
  8
0
 62
    18
420
        0
370
     9
100
AcDbLine
 10
260.5392161106074
 20
531.1715987793522
 30
0.0
 11
262.4557960127077
 21
531.4653304687535
 31
0.0
  0
SPLINE
  5
150
330
70
100
AcDbEntity
  8
0
 62
    18
420
        0
370
     9
100
AcDbSpline
210
0.0
220
0.0
230
1.0
 70
     8
 71
     3
 72
    11
 73
     7
 74
     0
 42
0.0000000001
 43
0.0000000001
 40
0.0
 40
0.0
 40
0.0
 40
0.0
 40
1.0
 40
1.0
 40
1.0
 40
2.0
 40
2.0
 40
2.0
 40
2.0
 10
260.5392161105829
 20
531.1715987793432
 30
0.0
 10
260.5385695374835
 20
531.1801809086127
 30
0.0
 10
260.537922964384
 20
531.1887630378814
 30
0.0
 10
260.5373162125307
 20
531.197347985887
 30
0.0
 10
260.5367518347202
 20
531.2053333824342
 30
0.0
 10
260.5362219103399
 20
531.2133212177605
 30
0.0
 10
260.5356919859605
 20
531.2213090530867
 30
0.0
  0
LINE
  5
151
330
70
100
AcDbEntity
  8
0
 62
    18
420
        0
370
     9
100
AcDbLine
 10
262.4520632719068
 20
531.5150407425535
 30
0.0
 11
260.5356919860078
 21
531.2213090530531
 31
0.0
  0
LINE
  5
152
330
70
100
AcDbEntity
  8
0
 62
    18
420
        0
370
     9
100
AcDbLine
 10
262.4580982422067
 20
531.0750988594545
 30
0.0
 11
260.5388957356063
 21
531.0750988594545
 31
0.0
  0
LINE
  5
153
330
70
100
AcDbEntity
  8
0
 62
    18
420
        0
370
     9
100
AcDbLine
 10
260.5388957356063
 20
531.0750988594545
 30
0.0
 11
260.5392161106074
 21
531.1715987793522
 31
0.0
  0
SPLINE
  5
154
330
70
100
AcDbEntity
  8
0
 62
    18
420
        0
370
     9
100
AcDbSpline
210
0.0
220
0.0
230
1.0
 70
     8
 71
     3
 72
    20
 73
    16
 74
     0
 42
0.0000000001
 43
0.0000000001
 40
0.0
 40
0.0
 40
0.0
 40
0.0
 40
1.0
 40
1.0
 40
1.0
 40
2.0
 40
2.0
 40
2.0
 40
3.0
 40
3.0
 40
3.0
 40
4.0
 40
4.0
 40
4.0
 40
5.0
 40
5.0
 40
5.0
 40
5.0
 10
422.6945686434446
 20
530.6920198074804
 30
0.0
 10
422.7039354194857
 20
530.691886431312
 30
0.0
 10
422.7133021955268
 20
530.6917530551427
 30
0.0
 10
422.7226722334562
 20
530.6914237610317
 30
0.0
 10
422.7321348561927
 20
530.6910912131852
 30
0.0
 10
422.7416008055952
 20
530.6905588565633
 30
0.0
 10
422.7510142420469
 20
530.6898144356237
 30
0.0
 10
422.7693019041416
 20
530.6883682349043
 30
0.0
 10
422.7873913740986
 20
530.686121670119
 30
0.0
 10
422.8058207129179
 20
530.6836751572109
 30
0.0
 10
422.8253049960549
 20
530.6810885994045
 30
0.0
 10
422.8451691717037
 20
530.6782785471778
 30
0.0
 10
422.8625494335829
 20
530.6702045074935
 30
0.0
 10
422.877566816347
 20
530.6632281486072
 30
0.0
 10
422.8907297608311
 20
530.6523218063357
 30
0.0
 10
422.9038927053152
 20
530.6414154640661
 30
0.0
  0
LINE
  5
155
330
70
100
AcDbEntity
  8
0
 62
    18
420
        0
370
     9
100
AcDbLine
 10
422.6733866428057
 20
531.2225607506543
 30
0.0
 11
422.6945686434082
 21
530.692019807454
 31
0.0
  0
LINE
  5
156
330
70
100
AcDbEntity
  8
0
 62
    18
420
        0
370
     9
100
AcDbLine
 10
418.2488817071061
 20
530.692019807454
 30
0.0
 11
422.6945686434082
 21
530.692019807454
 31
0.0
  0
LINE
  5
157
330
70
100
AcDbEntity
  8
0
 62
    18
420
        0
370
     9
100
AcDbLine
 10
418.2488817071061
 20
530.692019807454
 30
0.0
 11
418.8282388543084
 21
530.745246755252
 31
0.0
  0
SPLINE
  5
158
330
70
100
AcDbEntity
  8
0
 62
    18
420
        0
370
     9
100
AcDbSpline
210
0.0
220
0.0
230
1.0
 70
     8
 71
     3
 72
    17
 73
    13
 74
     0
 42
0.0000000001
 43
0.0000000001
 40
0.0
 40
0.0
 40
0.0
 40
0.0
 40
1.0
 40
1.0
 40
1.0
 40
2.0
 40
2.0
 40
2.0
 40
3.0
 40
3.0
 40
3.0
 40
4.0
 40
4.0
 40
4.0
 40
4.0
 10
260.4854229186731
 20
530.9741881958471
 30
0.0
 10
260.4820543005826
 20
530.9758835320617
 30
0.0
 10
260.4786856824921
 20
530.9775788682782
 30
0.0
 10
260.4761618469893
 20
530.9800890556807
 30
0.0
 10
260.4724783215552
 20
530.9837526617821
 30
0.0
 10
260.4705942893233
 20
530.9891520034288
 30
0.0
 10
260.4689347838103
 20
530.9943941704268
 30
0.0
 10
260.4669869666541
 20
531.0005470772657
 30
0.0
 10
260.4653484687933
 20
531.0064834524037
 30
0.0
 10
260.4640993570029
 20
531.0125735870833
 30
0.0
 10
260.4628647787667
 20
531.0185928623877
 30
0.0
 10
260.4620105782178
 20
531.02476234003
 30
0.0
 10
260.4611563776671
 20
531.0309318176733
 30
0.0
  0
LINE
  5
159
330
70
100
AcDbEntity
  8
0
 62
    18
420
        0
370
     9
100
AcDbLine
 10
260.5388957356063
 20
531.0750988594545
 30
0.0
 11
260.4611563777071
 21
531.0309318176532
 31
0.0
  0
SPLINE
  5
15A
330
70
100
AcDbEntity
  8
0
 62
    18
420
        0
370
     9
100
AcDbSpline
210
0.0
220
0.0
230
1.0
 70
     8
 71
     3
 72
    17
 73
    13
 74
     0
 42
0.0000000001
 43
0.0000000001
 40
0.0
 40
0.0
 40
0.0
 40
0.0
 40
1.0
 40
1.0
 40
1.0
 40
2.0
 40
2.0
 40
2.0
 40
3.0
 40
3.0
 40
3.0
 40
4.0
 40
4.0
 40
4.0
 40
4.0
 10
262.4582100008684
 20
530.9741881958471
 30
0.0
 10
262.4581936824188
 20
530.9767511900763
 30
0.0
 10
262.4581773639693
 20
530.9793141843028
 30
0.0
 10
262.4581652973848
 20
530.9818771950221
 30
0.0
 10
262.4581308754114
 20
530.989188616455
 30
0.0
 10
262.4581310539324
 20
530.9965001720947
 30
0.0
 10
262.4581280444818
 20
531.0038117043013
 30
0.0
 10
262.4581235548431
 20
531.0147193845377
 30
0.0
 10
262.4581119700397
 20
531.0256270126192
 30
0.0
 10
262.45810569274
 20
531.036534654283
 30
0.0
 10
262.4580982949028
 20
531.0493893767625
 30
0.0
 10
262.4580982685311
 20
531.0622441181085
 30
0.0
 10
262.4580982421594
 20
531.0750988594518
 30
0.0
  0
LINE
  5
15B
330
70
100
AcDbEntity
  8
0
 62
    18
420
        0
370
     9
100
AcDbLine
 10
262.4582100009084
 20
530.9741881958534
 30
0.0
 11
260.4854229187076
 21
530.9741881958534
 31
0.0
  0
LINE
  5
15C
330
70
100
AcDbEntity
  8
0
 62
    18
420
        0
370
     9
100
AcDbLine
 10
260.3812339996075
 20
531.2150505653526
 30
0.0
 11
260.3889453505071
 21
531.0750988594545
 31
0.0
  0
SPLINE
  5
15D
330
70
100
AcDbEntity
  8
0
 62
    18
420
        0
370
     9
100
AcDbSpline
210
0.0
220
0.0
230
1.0
 70
     8
 71
     3
 72
    14
 73
    10
 74
     0
 42
0.0000000001
 43
0.0000000001
 40
0.0
 40
0.0
 40
0.0
 40
0.0
 40
1.0
 40
1.0
 40
1.0
 40
2.0
 40
2.0
 40
2.0
 40
3.0
 40
3.0
 40
3.0
 40
3.0
 10
260.5392161105829
 20
531.1715987793432
 30
0.0
 10
260.526109681874
 20
531.170873217723
 30
0.0
 10
260.5130032531651
 20
531.1701476561056
 30
0.0
 10
260.4999217485129
 20
531.1709431282515
 30
0.0
 10
260.4863889950557
 20
531.1717660403492
 30
0.0
 10
260.4728829148316
 20
531.174216732772
 30
0.0
 10
260.4598897789674
 20
531.1780360809779
 30
0.0
 10
260.4321077544828
 20
531.1862026411136
 30
0.0
 10
260.4066708770442
 20
531.2006266032486
 30
0.0
 10
260.3812339996039
 20
531.2150505653853
 30
0.0
  0
LINE
  5
15E
330
70
100
AcDbEntity
  8
0
 62
    18
420
        0
370
     9
100
AcDbLine
 10
260.4611563777071
 20
531.0309318176532
 30
0.0
 11
260.3889453505071
 21
531.0750988594545
 31
0.0
  0
SPLINE
  5
15F
330
70
100
AcDbEntity
  8
0
 62
    18
420
        0
370
     9
100
AcDbSpline
210
0.0
220
0.0
230
1.0
 70
     8
 71
     3
 72
    17
 73
    13
 74
     0
 42
0.0000000001
 43
0.0000000001
 40
0.0
 40
0.0
 40
0.0
 40
0.0
 40
1.0
 40
1.0
 40
1.0
 40
2.0
 40
2.0
 40
2.0
 40
3.0
 40
3.0
 40
3.0
 40
4.0
 40
4.0
 40
4.0
 40
4.0
 10
262.6462999080359
 20
530.9741881958471
 30
0.0
 10
262.6587153608889
 20
530.9757272673696
 30
0.0
 10
262.6711308137437
 20
530.9772663388912
 30
0.0
 10
262.6824352239328
 20
530.9818771950221
 30
0.0
 10
262.6939478780951
 20
530.9865729899529
 30
0.0
 10
262.7043081784577
 20
530.9944547855484
 30
0.0
 10
262.713004956122
 20
531.0038117043013
 30
0.0
 10
262.7219062544391
 20
531.0133886681369
 30
0.0
 10
262.7290648684939
 20
531.024510951378
 30
0.0
 10
262.7333077882486
 20
531.036534654283
 30
0.0
 10
262.7376244638254
 20
531.0487673684747
 30
0.0
 10
262.7389231954349
 20
531.0619331139633
 30
0.0
 10
262.7402219270425
 20
531.0750988594518
 30
0.0
  0
LINE
  5
160
330
70
100
AcDbEntity
  8
0
 62
    18
420
        0
370
     9
100
AcDbLine
 10
262.6462999080068
 20
530.9741881958534
 30
0.0
 11
262.4582100009084
 21
530.9741881958534
 31
0.0
  0
SPLINE
  5
161
330
70
100
AcDbEntity
  8
0
 62
    18
420
        0
370
     9
100
AcDbSpline
210
0.0
220
0.0
230
1.0
 70
     8
 71
     3
 72
    17
 73
    13
 74
     0
 42
0.0000000001
 43
0.0000000001
 40
0.0
 40
0.0
 40
0.0
 40
0.0
 40
1.0
 40
1.0
 40
1.0
 40
2.0
 40
2.0
 40
2.0
 40
3.0
 40
3.0
 40
3.0
 40
4.0
 40
4.0
 40
4.0
 40
4.0
 10
262.6346919034659
 20
531.7735460869307
 30
0.0
 10
262.6200005314258
 20
531.7176942794503
 30
0.0
 10
262.605309159384
 20
531.661842471969
 30
0.0
 10
262.5756833051401
 20
531.613507615707
 30
0.0
 10
262.5614428518584
 20
531.5902741839663
 30
0.0
 10
262.5437517873379
 20
531.5687775433644
 30
0.0
 10
262.5228586887079
 20
531.5508035294032
 30
0.0
 10
262.5121974437316
 20
531.5416318230245
 30
0.0
 10
262.5007024482875
 20
531.5333773434795
 30
0.0
 10
262.4881538842856
 20
531.5274385086523
 30
0.0
 10
262.47670803851
 20
531.5220215551662
 30
0.0
 10
262.4643856551929
 20
531.518531148854
 30
0.0
 10
262.4520632718741
 20
531.515040742539
 30
0.0
  0
SPLINE
  5
162
330
70
100
AcDbEntity
  8
0
 62
    18
420
        0
370
     9
100
AcDbSpline
210
0.0
220
0.0
230
1.0
 70
     8
 71
     3
 72
    17
 73
    13
 74
     0
 42
0.0000000001
 43
0.0000000001
 40
0.0
 40
0.0
 40
0.0
 40
0.0
 40
1.0
 40
1.0
 40
1.0
 40
2.0
 40
2.0
 40
2.0
 40
3.0
 40
3.0
 40
3.0
 40
4.0
 40
4.0
 40
4.0
 40
4.0
 10
262.6346919034659
 20
531.7735460869307
 30
0.0
 10
262.6457098416777
 20
531.7718043683007
 30
0.0
 10
262.6567277798895
 20
531.7700626496743
 30
0.0
 10
262.6674297546106
 20
531.7671683899389
 30
0.0
 10
262.6776907302847
 20
531.7643933947174
 30
0.0
 10
262.6876612459309
 20
531.7605588874475
 30
0.0
 10
262.6973810886102
 20
531.7559627167201
 30
0.0
 10
262.7059036595183
 20
531.7519326935789
 30
0.0
 10
262.7142335088793
 20
531.7473170908916
 30
0.0
 10
262.7212080453592
 20
531.7411807648168
 30
0.0
 10
262.7268101980262
 20
531.7362518873797
 30
0.0
 10
262.731537933385
 20
531.7303418735091
 30
0.0
 10
262.7362656687456
 20
531.724431859634
 30
0.0
  0
SPLINE
  5
163
330
70
100
AcDbEntity
  8
0
 62
    18
420
        0
370
     9
100
AcDbSpline
210
0.0
220
0.0
230
1.0
 70
     8
 71
     3
 72
    20
 73
    16
 74
     0
 42
0.0000000001
 43
0.0000000001
 40
0.0
 40
0.0
 40
0.0
 40
0.0
 40
1.0
 40
1.0
 40
1.0
 40
2.0
 40
2.0
 40
2.0
 40
3.0
 40
3.0
 40
3.0
 40
4.0
 40
4.0
 40
4.0
 40
5.0
 40
5.0
 40
5.0
 40
5.0
 10
258.5886466597276
 20
533.8874844185347
 30
0.0
 10
258.5864225563728
 20
533.8982451939982
 30
0.0
 10
258.584198453018
 20
533.9090059694617
 30
0.0
 10
258.5820901488023
 20
533.9197901360011
 30
0.0
 10
258.581492494246
 20
533.9228471930482
 30
0.0
 10
258.5809041451812
 20
533.9259061297725
 30
0.0
 10
258.5803392623621
 20
533.9289692512966
 30
0.0
 10
258.5801637003897
 20
533.9299212498963
 30
0.0
 10
258.5799904050873
 20
533.9308736527118
 30
0.0
 10
258.5798400734621
 20
533.9318302742467
 30
0.0
 10
258.5797528080529
 20
533.9323855796838
 30
0.0
 10
258.5796732805775
 20
533.9329423066801
 30
0.0
 10
258.579601654883
 20
533.9334992043013
 30
0.0
 10
258.5779231508659
 20
533.9465497567698
 30
0.0
 10
258.5805840698303
 20
533.9596940133096
 30
0.0
 10
258.5832449887949
 20
533.9728382698512
 30
0.0
  0
LINE
  5
164
330
70
100
AcDbEntity
  8
0
 62
    18
420
        0
370
     9
100
AcDbLine
 10
258.5832449888076
 20
533.9728382698512
 30
0.0
 11
263.0557540153077
 21
533.9728382698512
 31
0.0
  0
SPLINE
  5
165
330
70
100
AcDbEntity
  8
0
 62
    18
420
        0
370
     9
100
AcDbSpline
210
0.0
220
0.0
230
1.0
 70
     8
 71
     3
 72
    17
 73
    13
 74
     0
 42
0.0000000001
 43
0.0000000001
 40
0.0
 40
0.0
 40
0.0
 40
0.0
 40
1.0
 40
1.0
 40
1.0
 40
2.0
 40
2.0
 40
2.0
 40
3.0
 40
3.0
 40
3.0
 40
4.0
 40
4.0
 40
4.0
 40
4.0
 10
263.0557540153223
 20
533.9728382698512
 30
0.0
 10
263.0559775425572
 20
533.9646524603095
 30
0.0
 10
263.0562010697941
 20
533.956466650764
 30
0.0
 10
263.0560296868043
 20
533.9482811562048
 30
0.0
 10
263.0559993178613
 20
533.9468306925
 30
0.0
 10
263.0559565489039
 20
533.9453802386888
 30
0.0
 10
263.0559551809984
 20
533.943930017137
 30
0.0
 10
263.0559526882243
 20
533.9412872388611
 30
0.0
 10
263.0560876832369
 20
533.9386452318949
 30
0.0
 10
263.0561712478357
 20
533.93600259938
 30
0.0
 10
263.056300639264
 20
533.9319107469555
 30
0.0
 10
263.0563067240655
 20
533.9278173947577
 30
0.0
 10
263.056312808867
 20
533.9237240425582
 30
0.0
  0
LINE
  5
166
330
70
100
AcDbEntity
  8
0
 62
    18
420
        0
370
     9
100
AcDbLine
 10
263.0563128089079
 20
533.9237240425518
 30
0.0
 11
262.6346919035077
 21
531.7735460869535
 31
0.0
  0
SPLINE
  5
167
330
70
100
AcDbEntity
  8
0
 62
    18
420
        0
370
     9
100
AcDbSpline
210
0.0
220
0.0
230
1.0
 70
     8
 71
     3
 72
    23
 73
    19
 74
     0
 42
0.0000000001
 43
0.0000000001
 40
0.0
 40
0.0
 40
0.0
 40
0.0
 40
1.0
 40
1.0
 40
1.0
 40
2.0
 40
2.0
 40
2.0
 40
3.0
 40
3.0
 40
3.0
 40
4.0
 40
4.0
 40
4.0
 40
5.0
 40
5.0
 40
5.0
 40
6.0
 40
6.0
 40
6.0
 40
6.0
 10
260.5356919859605
 20
531.2213090530867
 30
0.0
 10
260.5245958633513
 20
531.2203199991472
 30
0.0
 10
260.5134997407422
 20
531.2193309452095
 30
0.0
 10
260.5025443528848
 20
531.2203553787703
 30
0.0
 10
260.4916481768942
 20
531.2213742754547
 30
0.0
 10
260.4808912184726
 20
531.2243849533961
 30
0.0
 10
260.4705739115434
 20
531.2284616104598
 30
0.0
 10
260.4604941858488
 20
531.232444392519
 30
0.0
 10
260.4508340966731
 20
531.237444625397
 30
0.0
 10
260.4423883651453
 20
531.2440780273901
 30
0.0
 10
260.4420367184994
 20
531.2443542158453
 30
0.0
 10
260.4416871770173
 20
531.2446332354966
 30
0.0
 10
260.4413378332811
 20
531.2449124924178
 30
0.0
 10
260.4388436318213
 20
531.2469062966584
 30
0.0
 10
260.4363595105387
 20
531.2489121958888
 30
0.0
 10
260.4338872526842
 20
531.2509325615383
 30
0.0
 10
260.4271907588827
 20
531.2564050352266
 30
0.0
 10
260.4205813048157
 20
531.2619836463291
 30
0.0
 10
260.4139718507486
 20
531.2675622574316
 30
0.0
  0
LINE
  5
168
330
70
100
AcDbEntity
  8
0
 62
    18
420
        0
370
     9
100
AcDbLine
 10
260.4139718507085
 20
531.2675622574543
 30
0.0
 11
258.8987919782085
 21
532.5718310944512
 31
0.0
  0
SPLINE
  5
169
330
70
100
AcDbEntity
  8
0
 62
    18
420
        0
370
     9
100
AcDbSpline
210
0.0
220
0.0
230
1.0
 70
     8
 71
     3
 72
    11
 73
     7
 74
     0
 42
0.0000000001
 43
0.0000000001
 40
0.0
 40
0.0
 40
0.0
 40
0.0
 40
1.0
 40
1.0
 40
1.0
 40
2.0
 40
2.0
 40
2.0
 40
2.0
 10
258.8987919782358
 20
532.5718310944075
 30
0.0
 10
258.8833800460388
 20
532.5934297450658
 30
0.0
 10
258.8679681138419
 20
532.6150283957267
 30
0.0
 10
258.8572102879243
 20
532.6390651337133
 30
0.0
 10
258.8564315883432
 20
532.640805020369
 30
0.0
 10
258.855677274013
 20
532.6425576814099
 30
0.0
 10
258.8549229596811
 20
532.6443103424526
 30
0.0
  0
LINE
  5
16A
330
70
100
AcDbEntity
  8
0
 62
    18
420
        0
370
     9
100
AcDbLine
 10
258.8549229597084
 20
532.6443103424526
 30
0.0
 11
258.8297250961059
 21
532.7262071243531
 31
0.0
  0
LINE
  5
16B
330
70
100
AcDbEntity
  8
0
 62
    18
420
        0
370
     9
100
AcDbLine
 10
258.8297250961059
 20
532.7262071243531
 30
0.0
 11
258.5886466597076
 21
533.887484418553
 31
0.0
  0
LINE
  5
16C
330
70
100
AcDbEntity
  8
0
 62
    18
420
        0
370
     9
100
AcDbLine
 10
260.4854229187076
 20
530.9741881958534
 30
0.0
 11
258.9137750958071
 21
530.9741881958534
 31
0.0
  0
SPLINE
  5
16D
330
70
100
AcDbEntity
  8
0
 62
    18
420
        0
370
     9
100
AcDbSpline
210
0.0
220
0.0
230
1.0
 70
     8
 71
     3
 72
    17
 73
    13
 74
     0
 42
0.0000000001
 43
0.0000000001
 40
0.0
 40
0.0
 40
0.0
 40
0.0
 40
1.0
 40
1.0
 40
1.0
 40
2.0
 40
2.0
 40
2.0
 40
3.0
 40
3.0
 40
3.0
 40
4.0
 40
4.0
 40
4.0
 40
4.0
 10
258.8636773918825
 20
531.0750988594518
 30
0.0
 10
258.8643082595226
 20
531.0621012760321
 30
0.0
 10
258.8649391271629
 20
531.049103692615
 30
0.0
 10
258.8673654292779
 20
531.036534654283
 30
0.0
 10
258.8695241148798
 20
531.0253519569987
 30
0.0
 10
258.8731040115981
 20
531.01450848292
 30
0.0
 10
258.8781911228853
 20
531.0038117043013
 30
0.0
 10
258.8822253429307
 20
530.9953288628021
 30
0.0
 10
258.8872074395113
 20
530.9869382770357
 30
0.0
 10
258.8945004438119
 20
530.9818771950221
 30
0.0
 10
258.9000373335575
 20
530.9780347931901
 30
0.0
 10
258.9069062146864
 20
530.9761114945195
 30
0.0
 10
258.9137750958162
 20
530.9741881958471
 30
0.0
  0
LINE
  5
16E
330
70
100
AcDbEntity
  8
0
 62
    18
420
        0
370
     9
100
AcDbLine
 10
260.3889453505071
 20
531.0750988594545
 30
0.0
 11
258.8636773919079
 21
531.0750988594545
 31
0.0
  0
SPLINE
  5
16F
330
70
100
AcDbEntity
  8
0
 62
    18
420
        0
370
     9
100
AcDbSpline
210
0.0
220
0.0
230
1.0
 70
     8
 71
     3
 72
    14
 73
    10
 74
     0
 42
0.0000000001
 43
0.0000000001
 40
0.0
 40
0.0
 40
0.0
 40
0.0
 40
1.0
 40
1.0
 40
1.0
 40
2.0
 40
2.0
 40
2.0
 40
3.0
 40
3.0
 40
3.0
 40
3.0
 10
260.3811967467027
 20
531.2150505653853
 30
0.0
 10
260.3838967694619
 20
531.2238169248275
 30
0.0
 10
260.3865967922211
 20
531.2325832842661
 30
0.0
 10
260.3910091613489
 20
531.2405017487026
 30
0.0
 10
260.3937362594042
 20
531.245395815441
 30
0.0
 10
260.3971174654453
 20
531.2499659904097
 30
0.0
 10
260.400821575995
 20
531.2542108170019
 30
0.0
 10
260.4049390092059
 20
531.2589293019819
 30
0.0
 10
260.4094554299773
 20
531.2632457797063
 30
0.0
 10
260.4139718507486
 20
531.2675622574316
 30
0.0
  0
LINE
  5
170
330
70
100
AcDbEntity
  8
0
 62
    18
420
        0
370
     9
100
AcDbLine
 10
258.8587376569085
 20
532.5226572624533
 30
0.0
 11
260.3811967467081
 21
531.2150505653526
 31
0.0
  0
LINE
  5
171
330
70
100
AcDbEntity
  8
0
 62
    18
420
        0
370
     9
100
AcDbLine
 10
258.8636773919079
 20
531.0750988594545
 30
0.0
 11
258.8590133284069
 21
532.5226572624533
 31
0.0
  0
SPLINE
  5
172
330
70
100
AcDbEntity
  8
0
 62
    18
420
        0
370
     9
100
AcDbSpline
210
0.0
220
0.0
230
1.0
 70
     8
 71
     3
 72
    11
 73
     7
 74
     0
 42
0.0000000001
 43
0.0000000001
 40
0.0
 40
0.0
 40
0.0
 40
0.0
 40
1.0
 40
1.0
 40
1.0
 40
2.0
 40
2.0
 40
2.0
 40
2.0
 10
258.8587376569449
 20
532.5226572624679
 30
0.0
 10
258.8646254490086
 20
532.5315409348649
 30
0.0
 10
258.8705132410733
 20
532.5404246072658
 30
0.0
 10
258.8772150968271
 20
532.5486448875881
 30
0.0
 10
258.8838719461691
 20
532.5568099644988
 30
0.0
 10
258.8913319622025
 20
532.5643205294536
 30
0.0
 10
258.8987919782358
 20
532.5718310944075
 30
0.0
  0
SPLINE
  5
173
330
70
100
AcDbEntity
  8
0
 62
    18
420
        0
370
     9
100
AcDbSpline
210
0.0
220
0.0
230
1.0
 70
     8
 71
     3
 72
     8
 73
     4
 74
     0
 42
0.0000000001
 43
0.0000000001
 40
0.0
 40
0.0
 40
0.0
 40
0.0
 40
1.0
 40
1.0
 40
1.0
 40
1.0
 10
263.1578865741358
 20
533.8746098152678
 30
0.0
 10
263.132390445151
 20
533.9044700706181
 30
0.0
 10
263.0955506946102
 20
533.9222832911555
 30
0.0
 10
263.0563128088579
 20
533.9237240425618
 30
0.0
  0
LINE
  5
174
330
70
100
AcDbEntity
  8
0
 62
    18
420
        0
370
     9
100
AcDbLine
 10
262.7362656687073
 20
531.724431859654
 30
0.0
 11
263.1578865741085
 21
533.8746098152532
 31
0.0
  0
LINE
  5
175
330
70
100
AcDbEntity
  8
0
 62
    18
420
        0
370
     9
100
AcDbLine
 10
263.3960592841086
 20
531.0750988594545
 30
0.0
 11
262.7402219270079
 21
531.0750988594545
 31
0.0
  0
SPLINE
  5
176
330
70
100
AcDbEntity
  8
0
 62
    18
420
        0
370
     9
100
AcDbSpline
210
0.0
220
0.0
230
1.0
 70
     8
 71
     3
 72
    41
 73
    37
 74
     0
 42
0.0000000001
 43
0.0000000001
 40
0.0
 40
0.0
 40
0.0
 40
0.0
 40
1.0
 40
1.0
 40
1.0
 40
2.0
 40
2.0
 40
2.0
 40
3.0
 40
3.0
 40
3.0
 40
4.0
 40
4.0
 40
4.0
 40
5.0
 40
5.0
 40
5.0
 40
6.0
 40
6.0
 40
6.0
 40
7.0
 40
7.0
 40
7.0
 40
8.0
 40
8.0
 40
8.0
 40
9.0
 40
9.0
 40
9.0
 40
10.0
 40
10.0
 40
10.0
 40
11.0
 40
11.0
 40
11.0
 40
12.0
 40
12.0
 40
12.0
 40
12.0
 10
263.3960592840868
 20
531.0750988594518
 30
0.0
 10
263.3946904613476
 20
531.0634370553644
 30
0.0
 10
263.3933216386067
 20
531.051775251276
 30
0.0
 10
263.3894506190973
 20
531.0408857933508
 30
0.0
 10
263.3866702704727
 20
531.0330644715349
 30
0.0
 10
263.3825990912619
 20
531.0256415868344
 30
0.0
 10
263.3778426145273
 20
531.0187128654943
 30
0.0
 10
263.3749624988559
 20
531.0145174241998
 30
0.0
 10
263.3718311203393
 20
531.0105031668236
 30
0.0
 10
263.3683356736838
 20
531.0069111458288
 30
0.0
 10
263.3674399167849
 20
531.0059906404076
 30
0.0
 10
263.3665202510911
 20
531.0050978637582
 30
0.0
 10
263.3656460140883
 20
531.0041097275234
 30
0.0
 10
263.3654183088656
 20
531.0038523559187
 30
0.0
 10
263.3651936855386
 20
531.0035885150901
 30
0.0
 10
263.3649307583528
 20
531.0033944717861
 30
0.0
 10
263.3648622329765
 20
531.0033438992677
 30
0.0
 10
263.3647911057979
 20
531.0032980677688
 30
0.0
 10
263.3647370432573
 20
531.0032156578527
 30
0.0
 10
263.3647197570663
 20
531.0031893077511
 30
0.0
 10
263.3647042155044
 20
531.0031592180048
 30
0.0
 10
263.3646774386107
 20
531.003156053207
 30
0.0
 10
263.3646727050818
 20
531.0031554937477
 30
0.0
 10
263.3646676204462
 20
531.0031557756892
 30
0.0
 10
263.3646625374513
 20
531.003156053207
 30
0.0
 10
263.3576211736408
 20
531.0035404947503
 30
0.0
 10
263.3537249744995
 20
530.9954365438334
 30
0.0
 10
263.3484798763948
 20
530.9903410545802
 30
0.0
 10
263.3432424777002
 20
530.9852530451271
 30
0.0
 10
263.3366601373036
 20
530.9831646714274
 30
0.0
 10
263.330084392901
 20
530.9810427299963
 30
0.0
 10
263.3235109072539
 20
530.9789215174487
 30
0.0
 10
263.3169440130732
 20
530.9767667602255
 30
0.0
 10
263.3102062438684
 20
530.9756187073217
 30
0.0
 10
263.3034657195822
 20
530.9744701849804
 30
0.0
 10
263.2965541805006
 20
530.9743291904132
 30
0.0
 10
263.2896426414209
 20
530.9741881958471
 30
0.0
  0
LINE
  5
177
330
70
100
AcDbEntity
  8
0
 62
    18
420
        0
370
     9
100
AcDbLine
 10
263.2896426414081
 20
530.9741881958534
 30
0.0
 11
262.6462999080068
 21
530.9741881958534
 31
0.0
  0
LINE
  5
178
330
70
100
AcDbEntity
  8
0
 62
    18
420
        0
370
     9
100
AcDbLine
 10
263.1578865741085
 20
533.8746098152532
 30
0.0
 11
263.3700567578071
 21
533.8746098152532
 31
0.0
  0
LINE
  5
179
330
70
100
AcDbEntity
  8
0
 62
    18
420
        0
370
     9
100
AcDbLine
 10
263.3700567578071
 20
533.8746098152532
 30
0.0
 11
263.3960592841086
 21
531.0750988594545
 31
0.0
  0
LINE
  5
17A
330
70
100
AcDbEntity
  8
0
 62
    18
420
        0
370
     9
100
AcDbLine
 10
414.2677310203071
 20
538.3198050133533
 30
0.0
 11
414.2674031948063
 21
538.3149174324525
 31
0.0
  0
LINE
  5
17B
330
70
100
AcDbEntity
  8
0
 62
    18
420
        0
370
     9
100
AcDbLine
 10
414.2658609246064
 20
539.6410611740511
 30
0.0
 11
414.2674031948063
 21
538.3149174324525
 31
0.0
  0
SPLINE
  5
17C
330
70
100
AcDbEntity
  8
0
 62
    18
420
        0
370
     9
100
AcDbSpline
210
0.0
220
0.0
230
1.0
 70
     8
 71
     3
 72
    17
 73
    13
 74
     0
 42
0.0000000001
 43
0.0000000001
 40
0.0
 40
0.0
 40
0.0
 40
0.0
 40
1.0
 40
1.0
 40
1.0
 40
2.0
 40
2.0
 40
2.0
 40
3.0
 40
3.0
 40
3.0
 40
4.0
 40
4.0
 40
4.0
 40
4.0
 10
414.2658609245954
 20
539.6410611740584
 30
0.0
 10
414.2657961902441
 20
539.7167590685212
 30
0.0
 10
414.2657314558891
 20
539.7924569629867
 30
0.0
 10
414.2656895612417
 20
539.8681548706518
 30
0.0
 10
414.2656401453641
 20
539.9574426162826
 30
0.0
 10
414.2656225060163
 20
540.0467303802789
 30
0.0
 10
414.2656225060163
 20
540.1360181442724
 30
0.0
 10
414.2656225060163
 20
540.2253059082686
 30
0.0
 10
414.2656401453641
 20
540.314593672264
 30
0.0
 10
414.2656895612417
 20
540.403881417893
 30
0.0
 10
414.2657314558891
 20
540.479579325558
 30
0.0
 10
414.2657961902441
 20
540.5552772200235
 30
0.0
 10
414.2658609245954
 20
540.6309751144863
 30
0.0
  0
LINE
  5
17D
330
70
100
AcDbEntity
  8
0
 62
    18
420
        0
370
     9
100
AcDbLine
 10
414.2658609246064
 20
540.6309751144536
 30
0.0
 11
414.2678129767063
 21
542.307772981353
 31
0.0
  0
SPLINE
  5
17E
330
70
100
AcDbEntity
  8
0
 62
    18
420
        0
370
     9
100
AcDbSpline
210
0.0
220
0.0
230
1.0
 70
     8
 71
     3
 72
    17
 73
    13
 74
     0
 42
0.0000000001
 43
0.0000000001
 40
0.0
 40
0.0
 40
0.0
 40
0.0
 40
1.0
 40
1.0
 40
1.0
 40
2.0
 40
2.0
 40
2.0
 40
3.0
 40
3.0
 40
3.0
 40
4.0
 40
4.0
 40
4.0
 40
4.0
 10
414.267880031939
 20
542.4492148033605
 30
0.0
 10
414.2678812895246
 20
542.4362011223593
 30
0.0
 10
414.267882547112
 20
542.4231874413599
 30
0.0
 10
414.267880031939
 20
542.4101737610317
 30
0.0
 10
414.2678776166031
 20
542.3976766532896
 30
0.0
 10
414.2678717220806
 20
542.3851795461678
 30
0.0
 10
414.2678651307778
 20
542.3726824394698
 30
0.0
 10
414.267859052943
 20
542.3611588737667
 30
0.0
 10
414.2678523826616
 20
542.3496353084219
 30
0.0
 10
414.2678427790342
 20
542.3381117454992
 30
0.0
 10
414.2678343510197
 20
542.3279988228578
 30
0.0
 10
414.2678236638675
 20
542.3178859020854
 30
0.0
 10
414.2678129767118
 20
542.3077729813085
 30
0.0
  0
LINE
  5
17F
330
70
100
AcDbEntity
  8
0
 62
    18
420
        0
370
     9
100
AcDbLine
 10
414.2678800319063
 20
542.8516653648539
 30
0.0
 11
414.2678800319063
 21
542.4492148033532
 31
0.0
  0
LINE
  5
180
330
70
100
AcDbEntity
  8
0
 62
    18
420
        0
370
     9
100
AcDbLine
 10
414.2678800319063
 20
542.8516653648539
 30
0.0
 11
414.2683494185075
 21
542.8516653648539
 31
0.0
  0
LINE
  5
181
330
70
100
AcDbEntity
  8
0
 62
    18
420
        0
370
     9
100
AcDbLine
 10
414.2683494185075
 20
542.4492148033532
 30
0.0
 11
414.2683494185075
 21
542.8516653648539
 31
0.0
  0
SPLINE
  5
182
330
70
100
AcDbEntity
  8
0
 62
    18
420
        0
370
     9
100
AcDbSpline
210
0.0
220
0.0
230
1.0
 70
     8
 71
     3
 72
    17
 73
    13
 74
     0
 42
0.0000000001
 43
0.0000000001
 40
0.0
 40
0.0
 40
0.0
 40
0.0
 40
1.0
 40
1.0
 40
1.0
 40
2.0
 40
2.0
 40
2.0
 40
3.0
 40
3.0
 40
3.0
 40
4.0
 40
4.0
 40
4.0
 40
4.0
 10
414.2683494185166
 20
542.4492148033605
 30
0.0
 10
414.2683459583459
 20
542.4101936289889
 30
0.0
 10
414.2683424981733
 20
542.3711724546174
 30
0.0
 10
414.2683345173536
 20
542.3321512810225
 30
0.0
 10
414.2683268453638
 20
542.29464008999
 30
0.0
 10
414.2683149958247
 20
542.257128899676
 30
0.0
 10
414.2682972644506
 20
542.2196177116847
 30
0.0
 10
414.2682809136458
 20
542.1850271458252
 30
0.0
 10
414.2682595612678
 20
542.1504365819382
 30
0.0
 10
414.2682302092253
 20
542.1158460251318
 30
0.0
 10
414.268204498785
 20
542.0855469937505
 30
0.0
 10
414.2681726505215
 20
542.0552479678008
 30
0.0
 10
414.2681408022581
 20
542.0249489418493
 30
0.0
  0
LINE
  5
183
330
70
100
AcDbEntity
  8
0
 62
    18
420
        0
370
     9
100
AcDbLine
 10
414.2681408023054
 20
542.024948941852
 30
0.0
 11
414.2661962007059
 21
540.3481510750544
 31
0.0
  0
SPLINE
  5
184
330
70
100
AcDbEntity
  8
0
 62
    18
420
        0
370
     9
100
AcDbSpline
210
0.0
220
0.0
230
1.0
 70
     8
 71
     3
 72
    17
 73
    13
 74
     0
 42
0.0000000001
 43
0.0000000001
 40
0.0
 40
0.0
 40
0.0
 40
0.0
 40
1.0
 40
1.0
 40
1.0
 40
2.0
 40
2.0
 40
2.0
 40
3.0
 40
3.0
 40
3.0
 40
4.0
 40
4.0
 40
4.0
 40
4.0
 10
414.2661962007241
 20
539.9238852135168
 30
0.0
 10
414.266164147928
 20
539.9563300059935
 30
0.0
 10
414.2661320951301
 20
539.9887747984657
 30
0.0
 10
414.2661142443357
 20
540.0212195984359
 30
0.0
 10
414.2660931906812
 20
540.0594857734331
 30
0.0
 10
414.266091892594
 20
540.0977519588532
 30
0.0
 10
414.266091892594
 20
540.1360181442724
 30
0.0
 10
414.266091892594
 20
540.1742843296934
 30
0.0
 10
414.2660931906812
 20
540.2125505151125
 30
0.0
 10
414.2661142443357
 20
540.2508166901098
 30
0.0
 10
414.2661320951301
 20
540.2832614900789
 30
0.0
 10
414.266164147928
 20
540.3157062825548
 30
0.0
 10
414.2661962007241
 20
540.348151075028
 30
0.0
  0
LINE
  5
185
330
70
100
AcDbEntity
  8
0
 62
    18
420
        0
370
     9
100
AcDbLine
 10
414.2661962007059
 20
539.923885213554
 30
0.0
 11
414.2680588459079
 21
538.3198050133533
 31
0.0
  0
SPLINE
  5
186
330
70
100
AcDbEntity
  8
0
 62
    18
420
        0
370
     9
100
AcDbSpline
210
0.0
220
0.0
230
1.0
 70
     8
 71
     3
 72
    17
 73
    13
 74
     0
 42
0.0000000001
 43
0.0000000001
 40
0.0
 40
0.0
 40
0.0
 40
0.0
 40
1.0
 40
1.0
 40
1.0
 40
2.0
 40
2.0
 40
2.0
 40
3.0
 40
3.0
 40
3.0
 40
4.0
 40
4.0
 40
4.0
 40
4.0
 10
411.2658697460829
 20
539.6410611740584
 30
0.0
 10
411.265801031419
 20
539.7167590679682
 30
0.0
 10
411.2657323167532
 20
539.7924569618798
 30
0.0
 10
411.2656909321485
 20
539.8681548706518
 30
0.0
 10
411.2656421178835
 20
539.9574426147437
 30
0.0
 10
411.2656313275038
 20
540.0467303795067
 30
0.0
 10
411.2656313275038
 20
540.1360181442724
 30
0.0
 10
411.2656313275038
 20
540.225305909039
 30
0.0
 10
411.2656421178835
 20
540.3145936738046
 30
0.0
 10
411.2656909321485
 20
540.403881417893
 30
0.0
 10
411.2657323167532
 20
540.4795793266648
 30
0.0
 10
411.265801031419
 20
540.5552772205756
 30
0.0
 10
411.2658697460829
 20
540.6309751144863
 30
0.0
  0
LINE
  5
187
330
70
100
AcDbEntity
  8
0
 62
    18
420
        0
370
     9
100
AcDbLine
 10
414.2658609246064
 20
540.6309751144536
 30
0.0
 11
411.2658697461084
 21
540.6309751144536
 31
0.0
  0
LINE
  5
188
330
70
100
AcDbEntity
  8
0
 62
    18
420
        0
370
     9
100
AcDbLine
 10
411.2658697461084
 20
539.6410611740511
 30
0.0
 11
414.2658609246064
 21
539.6410611740511
 31
0.0
  0
LINE
  5
189
330
70
100
AcDbEntity
  8
0
 62
    18
420
        0
370
     9
100
AcDbLine
 10
272.900675544608
 20
533.5156706444522
 30
0.0
 11
272.8990140651076
 21
534.9425462357512
 31
0.0
  0
SPLINE
  5
18A
330
70
100
AcDbEntity
  8
0
 62
    18
420
        0
370
     9
100
AcDbSpline
210
0.0
220
0.0
230
1.0
 70
     8
 71
     3
 72
    17
 73
    13
 74
     0
 42
0.0000000001
 43
0.0000000001
 40
0.0
 40
0.0
 40
0.0
 40
0.0
 40
1.0
 40
1.0
 40
1.0
 40
2.0
 40
2.0
 40
2.0
 40
3.0
 40
3.0
 40
3.0
 40
4.0
 40
4.0
 40
4.0
 40
4.0
 10
272.8990140651404
 20
534.9425462357039
 30
0.0
 10
272.8989453500108
 20
535.0182441296137
 30
0.0
 10
272.8988766348793
 20
535.0939420235254
 30
0.0
 10
272.8988352512079
 20
535.1696399322973
 30
0.0
 10
272.8987864380397
 20
535.2589276763874
 30
0.0
 10
272.8987756507085
 20
535.3482154411522
 30
0.0
 10
272.8987756465613
 20
535.4375032059179
 30
0.0
 10
272.8987756424158
 20
535.5268108389
 30
0.0
 10
272.8987864262508
 20
535.616118471883
 30
0.0
 10
272.8988352512079
 20
535.7054260841833
 30
0.0
 10
272.8988766356652
 20
535.7811239929542
 30
0.0
 10
272.8989453504037
 20
535.8568218868668
 30
0.0
 10
272.8990140651404
 20
535.9325197807775
 30
0.0
  0
LINE
  5
18B
330
70
100
AcDbEntity
  8
0
 62
    18
420
        0
370
     9
100
AcDbLine
 10
272.8990140651076
 20
535.9325197807529
 30
0.0
 11
272.9009661173058
 21
537.6092580429522
 31
0.0
  0
SPLINE
  5
18C
330
70
100
AcDbEntity
  8
0
 62
    18
420
        0
370
     9
100
AcDbSpline
210
0.0
220
0.0
230
1.0
 70
     8
 71
     3
 72
    17
 73
    13
 74
     0
 42
0.0000000001
 43
0.0000000001
 40
0.0
 40
0.0
 40
0.0
 40
0.0
 40
1.0
 40
1.0
 40
1.0
 40
2.0
 40
2.0
 40
2.0
 40
3.0
 40
3.0
 40
3.0
 40
4.0
 40
4.0
 40
4.0
 40
4.0
 10
272.901033172484
 20
537.750699865005
 30
0.0
 10
272.9010315369342
 20
537.7376861839247
 30
0.0
 10
272.9010299013844
 20
537.7246725028444
 30
0.0
 10
272.9010257219034
 20
537.711658822679
 30
0.0
 10
272.9010217083232
 20
537.699161715318
 30
0.0
 10
272.9010153487616
 20
537.6866646088029
 30
0.0
 10
272.9010108207422
 20
537.6741675011134
 30
0.0
 10
272.9010066454593
 20
537.6626439358378
 30
0.0
 10
272.9010040274734
 20
537.6511203695672
 30
0.0
 10
272.900995919581
 20
537.6395968071447
 30
0.0
 10
272.9009888042037
 20
537.6294838837702
 30
0.0
 10
272.9009774607312
 20
537.6193709633626
 30
0.0
 10
272.9009661172568
 20
537.609258042953
 30
0.0
  0
LINE
  5
18D
330
70
100
AcDbEntity
  8
0
 62
    18
420
        0
370
     9
100
AcDbLine
 10
272.9010331725085
 20
537.7506998650533
 30
0.0
 11
272.9010331725085
 21
538.4360340706543
 31
0.0
  0
LINE
  5
18E
330
70
100
AcDbEntity
  8
0
 62
    18
420
        0
370
     9
100
AcDbLine
 10
272.9010331725085
 20
538.4360340706543
 30
0.0
 11
272.9014951085082
 21
538.4360340706543
 31
0.0
  0
LINE
  5
18F
330
70
100
AcDbEntity
  8
0
 62
    18
420
        0
370
     9
100
AcDbLine
 10
272.9014951085082
 20
538.4360340706543
 30
0.0
 11
272.9014951085082
 21
537.7506998650533
 31
0.0
  0
SPLINE
  5
190
330
70
100
AcDbEntity
  8
0
 62
    18
420
        0
370
     9
100
AcDbSpline
210
0.0
220
0.0
230
1.0
 70
     8
 71
     3
 72
    17
 73
    13
 74
     0
 42
0.0000000001
 43
0.0000000001
 40
0.0
 40
0.0
 40
0.0
 40
0.0
 40
1.0
 40
1.0
 40
1.0
 40
2.0
 40
2.0
 40
2.0
 40
3.0
 40
3.0
 40
3.0
 40
4.0
 40
4.0
 40
4.0
 40
4.0
 10
272.901495108481
 20
537.750699865005
 30
0.0
 10
272.9014919180609
 20
537.7116786904707
 30
0.0
 10
272.9014887276426
 20
537.6726575159327
 30
0.0
 10
272.9014802073198
 20
537.633636342668
 30
0.0
 10
272.9014720167033
 20
537.5961251519511
 30
0.0
 10
272.9014589007002
 20
537.5586139624092
 30
0.0
 10
272.9014429544168
 20
537.5211027733302
 30
0.0
 10
272.9014282497101
 20
537.4865122079809
 30
0.0
 10
272.9014111382985
 20
537.4519216430226
 30
0.0
 10
272.901383349772
 20
537.4173310867773
 30
0.0
 10
272.9013590088643
 20
537.3870320545584
 30
0.0
 10
272.9013264758342
 20
537.3567330290288
 30
0.0
 10
272.9012939428049
 20
537.3264340034957
 30
0.0
  0
LINE
  5
191
330
70
100
AcDbEntity
  8
0
 62
    18
420
        0
370
     9
100
AcDbLine
 10
272.9012939428085
 20
537.326434003452
 30
0.0
 11
272.8993418907085
 21
535.6496361366525
 31
0.0
  0
SPLINE
  5
192
330
70
100
AcDbEntity
  8
0
 62
    18
420
        0
370
     9
100
AcDbSpline
210
0.0
220
0.0
230
1.0
 70
     8
 71
     3
 72
    17
 73
    13
 74
     0
 42
0.0000000001
 43
0.0000000001
 40
0.0
 40
0.0
 40
0.0
 40
0.0
 40
1.0
 40
1.0
 40
1.0
 40
2.0
 40
2.0
 40
2.0
 40
3.0
 40
3.0
 40
3.0
 40
4.0
 40
4.0
 40
4.0
 40
4.0
 10
272.8993418906885
 20
535.2253702751623
 30
0.0
 10
272.8993138183378
 20
535.2578150682066
 30
0.0
 10
272.8992857459871
 20
535.290259861249
 30
0.0
 10
272.8992673848807
 20
535.3227046600805
 30
0.0
 10
272.8992457293516
 20
535.3609708366575
 30
0.0
 10
272.8992375825583
 20
535.3992370212881
 30
0.0
 10
272.8992375825583
 20
535.4375032059179
 30
0.0
 10
272.8992375825583
 20
535.4757693905494
 30
0.0
 10
272.8992457293516
 20
535.51403557518
 30
0.0
 10
272.8992673848807
 20
535.5523017517562
 30
0.0
 10
272.8992857459871
 20
535.5847465505894
 30
0.0
 10
272.8993138183378
 20
535.617191343631
 30
0.0
 10
272.8993418906885
 20
535.6496361366735
 30
0.0
  0
LINE
  5
193
330
70
100
AcDbEntity
  8
0
 62
    18
420
        0
370
     9
100
AcDbLine
 10
272.8993418907085
 20
535.2253702751522
 30
0.0
 11
272.9013311957078
 21
533.5156706444522
 31
0.0
  0
LINE
  5
194
330
70
100
AcDbEntity
  8
0
 62
    18
420
        0
370
     9
100
AcDbLine
 10
272.8990140651076
 20
534.9425462357512
 30
0.0
 11
269.8990154360072
 21
534.9425462357512
 31
0.0
  0
SPLINE
  5
195
330
70
100
AcDbEntity
  8
0
 62
    18
420
        0
370
     9
100
AcDbSpline
210
0.0
220
0.0
230
1.0
 70
     8
 71
     3
 72
    17
 73
    13
 74
     0
 42
0.0000000001
 43
0.0000000001
 40
0.0
 40
0.0
 40
0.0
 40
0.0
 40
1.0
 40
1.0
 40
1.0
 40
2.0
 40
2.0
 40
2.0
 40
3.0
 40
3.0
 40
3.0
 40
4.0
 40
4.0
 40
4.0
 40
4.0
 10
269.899015436049
 20
534.9425462357039
 30
0.0
 10
269.8989467209158
 20
535.0182441296137
 30
0.0
 10
269.8988780057844
 20
535.0939420235254
 30
0.0
 10
269.8988366221129
 20
535.1696399322973
 30
0.0
 10
269.8987878089465
 20
535.2589276763874
 30
0.0
 10
269.8987770216154
 20
535.3482154411522
 30
0.0
 10
269.8987770174699
 20
535.4375032059179
 30
0.0
 10
269.8987770133226
 20
535.5268108389
 30
0.0
 10
269.8987877971577
 20
535.616118471883
 30
0.0
 10
269.8988366221129
 20
535.7054260841833
 30
0.0
 10
269.898878006572
 20
535.7811239929542
 30
0.0
 10
269.8989467213105
 20
535.8568218868668
 30
0.0
 10
269.899015436049
 20
535.9325197807775
 30
0.0
  0
LINE
  5
196
330
70
100
AcDbEntity
  8
0
 62
    18
420
        0
370
     9
100
AcDbLine
 10
272.8990140651076
 20
535.9325197807529
 30
0.0
 11
269.8990154360072
 21
535.9325197807529
 31
0.0
  0
LINE
  5
197
330
70
100
AcDbEntity
  8
0
 62
    18
420
        0
370
     9
100
AcDbLine
 10
411.2678143476077
 20
542.307772981353
 30
0.0
 11
414.2678129767063
 21
542.307772981353
 31
0.0
  0
LINE
  5
198
330
70
100
AcDbEntity
  8
0
 62
    18
420
        0
370
     9
100
AcDbLine
 10
411.2658697461084
 20
540.6309751144536
 30
0.0
 11
411.2678143476077
 21
542.307772981353
 31
0.0
  0
LINE
  5
199
330
70
100
AcDbEntity
  8
0
 62
    18
420
        0
370
     9
100
AcDbLine
 10
411.2674120163064
 20
538.3149174324525
 30
0.0
 11
414.2674031948063
 21
538.3149174324525
 31
0.0
  0
LINE
  5
19A
330
70
100
AcDbEntity
  8
0
 62
    18
420
        0
370
     9
100
AcDbLine
 10
411.2674120163064
 20
538.3149174324525
 30
0.0
 11
411.2658697461084
 21
539.6410611740511
 31
0.0
  0
LINE
  5
19B
330
70
100
AcDbEntity
  8
0
 62
    18
420
        0
370
     9
100
AcDbLine
 10
272.9009661173058
 20
537.6092580429522
 30
0.0
 11
269.9009674882073
 21
537.6092580429522
 31
0.0
  0
LINE
  5
19C
330
70
100
AcDbEntity
  8
0
 62
    18
420
        0
370
     9
100
AcDbLine
 10
269.8990154360072
 20
535.9325197807529
 30
0.0
 11
269.9009674882073
 21
537.6092580429522
 31
0.0
  0
LINE
  5
19D
330
70
100
AcDbEntity
  8
0
 62
    18
420
        0
370
     9
100
AcDbLine
 10
269.8990154360072
 20
534.9425462357512
 30
0.0
 11
269.9006769155076
 21
533.5156706444522
 31
0.0
  0
LINE
  5
19E
330
70
100
AcDbEntity
  8
0
 62
    18
420
        0
370
     9
100
AcDbLine
 10
258.7839487289075
 20
531.0752180687532
 30
0.0
 11
258.8636773919079
 21
531.0750988594545
 31
0.0
  0
LINE
  5
19F
330
70
100
AcDbEntity
  8
0
 62
    18
420
        0
370
     9
100
AcDbLine
 10
258.7319585775085
 20
531.0750988594545
 30
0.0
 11
258.7839487289075
 21
531.0752180687532
 31
0.0
  0
LINE
  5
1A0
330
70
100
AcDbEntity
  8
0
 62
    18
420
        0
370
     9
100
AcDbLine
 10
258.7433654164069
 20
532.6770928970518
 30
0.0
 11
258.7319585775085
 21
531.0750988594545
 31
0.0
  0
SPLINE
  5
1A1
330
70
100
AcDbEntity
  8
0
 62
    18
420
        0
370
     9
100
AcDbSpline
210
0.0
220
0.0
230
1.0
 70
     8
 71
     3
 72
    23
 73
    19
 74
     0
 42
0.0000000001
 43
0.0000000001
 40
0.0
 40
0.0
 40
0.0
 40
0.0
 40
1.0
 40
1.0
 40
1.0
 40
2.0
 40
2.0
 40
2.0
 40
3.0
 40
3.0
 40
3.0
 40
4.0
 40
4.0
 40
4.0
 40
5.0
 40
5.0
 40
5.0
 40
6.0
 40
6.0
 40
6.0
 40
6.0
 10
258.7433654164033
 20
532.67709289708
 30
0.0
 10
258.754292222111
 20
532.649887332539
 30
0.0
 10
258.7652190278186
 20
532.6226817679971
 30
0.0
 10
258.7805214618384
 20
532.5976399055953
 30
0.0
 10
258.7972260132811
 20
532.5703035303413
 30
0.0
 10
258.8191447808549
 20
532.5455455300789
 30
0.0
 10
258.8454905246454
 20
532.5273064247603
 30
0.0
 10
258.8482234515886
 20
532.5254144249448
 30
0.0
 10
258.8510040153015
 20
532.5235925721326
 30
0.0
 10
258.8541704510408
 20
532.5224784485317
 30
0.0
 10
258.8551147925045
 20
532.5221461780565
 30
0.0
 10
258.8560934549805
 20
532.5218768558625
 30
0.0
 10
258.8570836280524
 20
532.5219420067305
 30
0.0
 10
258.8574558781675
 20
532.5219664998412
 30
0.0
 10
258.857829755123
 20
532.5220382654515
 30
0.0
 10
258.8581714128213
 20
532.5221804253088
 30
0.0
 10
258.8584682667479
 20
532.5223039428301
 30
0.0
 10
258.8587407975883
 20
532.522480602649
 30
0.0
 10
258.8590133284288
 20
532.5226572624679
 30
0.0
  0
SPLINE
  5
1A2
330
70
100
AcDbEntity
  8
0
 62
    18
420
        0
370
     9
100
AcDbSpline
210
0.0
220
0.0
230
1.0
 70
     8
 71
     3
 72
    17
 73
    13
 74
     0
 42
0.0000000001
 43
0.0000000001
 40
0.0
 40
0.0
 40
0.0
 40
0.0
 40
1.0
 40
1.0
 40
1.0
 40
2.0
 40
2.0
 40
2.0
 40
3.0
 40
3.0
 40
3.0
 40
4.0
 40
4.0
 40
4.0
 40
4.0
 10
258.8606226538377
 20
530.9741881958471
 30
0.0
 10
258.8495243343896
 20
530.9761495234452
 30
0.0
 10
258.8384260149433
 20
530.9781108510451
 30
0.0
 10
258.8288533781724
 20
530.9831884972072
 30
0.0
 10
258.8173951689841
 20
530.9892663139399
 30
0.0
 10
258.808122881228
 20
530.99980903523
 30
0.0
 10
258.8010329102235
 20
531.0112622848974
 30
0.0
 10
258.7949439707081
 20
531.0210984526902
 30
0.0
 10
258.790464609785
 20
531.0316061852208
 30
0.0
 10
258.78788263547
 20
531.0425547234054
 30
0.0
 10
258.7853890019487
 20
531.0531286635296
 30
0.0
 10
258.7846651401414
 20
531.0641137614902
 30
0.0
 10
258.7839412783324
 20
531.0750988594518
 30
0.0
  0
LINE
  5
1A3
330
70
100
AcDbEntity
  8
0
 62
    18
420
        0
370
     9
100
AcDbLine
 10
258.9137750958071
 20
530.9741881958534
 30
0.0
 11
258.8603246306084
 21
530.9741881958534
 31
0.0
  0
SPLINE
  5
1A4
330
70
100
AcDbEntity
  8
0
 62
    18
420
        0
370
     9
100
AcDbSpline
210
0.0
220
0.0
230
1.0
 70
     8
 71
     3
 72
     8
 73
     4
 74
     0
 42
0.0000000001
 43
0.0000000001
 40
0.0
 40
0.0
 40
0.0
 40
0.0
 40
1.0
 40
1.0
 40
1.0
 40
1.0
 10
258.8297250960568
 20
532.726207124343
 30
0.0
 10
258.7954972384268
 20
532.7221391454795
 30
0.0
 10
258.7643594203946
 20
532.7044305356557
 30
0.0
 10
258.7433654163579
 20
532.677092897049
 30
0.0
  0
LWPOLYLINE
  5
1A5
330
70
100
AcDbEntity
  8
0
 62
    18
420
        0
370
     9
100
AcDbPolyline
 90
        3
 70
     0
 43
0.0
 10
422.8930148576073
 20
533.7677386871537
 10
422.8395494913057
 20
533.7245849243536
 10
422.8045392130079
 20
533.6963323227519
  0
SPLINE
  5
1A6
330
70
100
AcDbEntity
  8
0
 62
    18
420
        0
370
     9
100
AcDbSpline
210
0.0
220
0.0
230
1.0
 70
     8
 71
     3
 72
    17
 73
    13
 74
     0
 42
0.0000000001
 43
0.0000000001
 40
0.0
 40
0.0
 40
0.0
 40
0.0
 40
1.0
 40
1.0
 40
1.0
 40
2.0
 40
2.0
 40
2.0
 40
3.0
 40
3.0
 40
3.0
 40
4.0
 40
4.0
 40
4.0
 40
4.0
 10
258.8259625529008
 20
530.9741881958471
 30
0.0
 10
258.813537408083
 20
530.9757271403586
 30
0.0
 10
258.801112263267
 20
530.9772660848693
 30
0.0
 10
258.7897974346834
 20
530.9818771950221
 30
0.0
 10
258.7782758439225
 20
530.9865725665677
 30
0.0
 10
258.767905519011
 20
530.9944534084179
 30
0.0
 10
258.7591979001718
 20
531.0038117043013
 30
0.0
 10
258.7502885121194
 20
531.0133868466063
 30
0.0
 10
258.743119777906
 20
531.0245087060875
 30
0.0
 10
258.7388727163034
 20
531.036534654283
 30
0.0
 10
258.7345531492083
 20
531.0487659084911
 30
0.0
 10
258.7332558633589
 20
531.06193238397
 30
0.0
 10
258.7319585775095
 20
531.0750988594518
 30
0.0
  0
LINE
  5
1A7
330
70
100
AcDbEntity
  8
0
 62
    18
420
        0
370
     9
100
AcDbLine
 10
258.8603246306084
 20
530.9741881958534
 30
0.0
 11
258.8259625529081
 21
530.9741881958534
 31
0.0
  0
LINE
  5
1A8
330
70
100
AcDbEntity
  8
0
 62
    18
420
        0
370
     9
100
AcDbLine
 10
418.2123887633061
 20
530.692019807454
 30
0.0
 11
418.2488817071061
 21
530.692019807454
 31
0.0
  0
SPLINE
  5
1A9
330
70
100
AcDbEntity
  8
0
 62
    18
420
        0
370
     9
100
AcDbSpline
210
0.0
220
0.0
230
1.0
 70
     8
 71
     3
 72
    14
 73
    10
 74
     0
 42
0.0000000001
 43
0.0000000001
 40
0.0
 40
0.0
 40
0.0
 40
0.0
 40
1.0
 40
1.0
 40
1.0
 40
2.0
 40
2.0
 40
2.0
 40
3.0
 40
3.0
 40
3.0
 40
3.0
 10
418.2123887633024
 20
530.6917813889013
 30
0.0
 10
418.1902519435498
 20
530.7102873635658
 30
0.0
 10
418.1681151237971
 20
530.7287933382268
 30
0.0
 10
418.1519794558226
 20
530.7523993126388
 30
0.0
 10
418.1439747338008
 20
530.7641099690235
 30
0.0
 10
418.1374469190341
 20
530.7770757555718
 30
0.0
 10
418.1335914229094
 20
530.7906654945846
 30
0.0
 10
418.129916393962
 20
530.8036191282162
 30
0.0
 10
418.1286693680704
 20
530.8171396697207
 30
0.0
 10
418.1274223421751
 20
530.8306602112288
 30
0.0
  0
LINE
  5
1AA
330
70
100
AcDbEntity
  8
0
 62
    18
420
        0
370
     9
100
AcDbLine
 10
418.1958112215069
 20
530.8306602112543
 30
0.0
 11
418.127422342206
 21
530.8306602112543
 31
0.0
  0
LINE
  5
1AB
330
70
100
AcDbEntity
  8
0
 62
    18
420
        0
370
     9
100
AcDbLine
 10
258.7433654164069
 20
532.6770928970518
 30
0.0
 11
258.496922562008
 21
533.8642386070524
 31
0.0
  0
SPLINE
  5
1AC
330
70
100
AcDbEntity
  8
0
 62
    18
420
        0
370
     9
100
AcDbSpline
210
0.0
220
0.0
230
1.0
 70
     8
 71
     3
 72
    20
 73
    16
 74
     0
 42
0.0000000001
 43
0.0000000001
 40
0.0
 40
0.0
 40
0.0
 40
0.0
 40
1.0
 40
1.0
 40
1.0
 40
2.0
 40
2.0
 40
2.0
 40
3.0
 40
3.0
 40
3.0
 40
4.0
 40
4.0
 40
4.0
 40
5.0
 40
5.0
 40
5.0
 40
5.0
 10
258.4969225619989
 20
533.8642386070723
 30
0.0
 10
258.498511550737
 20
533.867407116053
 30
0.0
 10
258.5001005394752
 20
533.8705756250337
 30
0.0
 10
258.5022497271239
 20
533.8733581177221
 30
0.0
 10
258.5043587167538
 20
533.8760885671636
 30
0.0
 10
258.5070071455493
 20
533.8784473052319
 30
0.0
 10
258.5099163745599
 20
533.8803318611608
 30
0.0
 10
258.5162530368252
 20
533.8844366581406
 30
0.0
 10
258.5238269940583
 20
533.8862918282456
 30
0.0
 10
258.5313665960985
 20
533.8873652092443
 30
0.0
 10
258.54046752043
 20
533.8886608690391
 30
0.0
 10
258.549518387561
 20
533.8888174237863
 30
0.0
 10
258.558583567019
 20
533.8886765114303
 30
0.0
 10
258.5685929651809
 20
533.8885209218042
 30
0.0
 10
258.5786198124542
 20
533.8880026701681
 30
0.0
 10
258.5886466597276
 20
533.8874844185347
 30
0.0
  0
SPLINE
  5
1AD
330
70
100
AcDbEntity
  8
0
 62
    18
420
        0
370
     9
100
AcDbSpline
210
0.0
220
0.0
230
1.0
 70
     8
 71
     3
 72
    11
 73
     7
 74
     0
 42
0.0000000001
 43
0.0000000001
 40
0.0
 40
0.0
 40
0.0
 40
0.0
 40
1.0
 40
1.0
 40
1.0
 40
2.0
 40
2.0
 40
2.0
 40
2.0
 10
422.6954925154386
 20
533.908107625627
 30
0.0
 10
422.695492200688
 20
533.8894315028255
 30
0.0
 10
422.6954918859409
 20
533.8707553800222
 30
0.0
 10
422.6954850648581
 20
533.8520792595373
 30
0.0
 10
422.6954787952672
 20
533.8349131205387
 30
0.0
 10
422.6954670289014
 20
533.8177469834963
 30
0.0
 10
422.6954552625357
 20
533.8005808464522
 30
0.0
  0
SPLINE
  5
1AE
330
70
100
AcDbEntity
  8
0
 62
    18
420
        0
370
     9
100
AcDbSpline
210
0.0
220
0.0
230
1.0
 70
     8
 71
     3
 72
    14
 73
    10
 74
     0
 42
0.0000000001
 43
0.0000000001
 40
0.0
 40
0.0
 40
0.0
 40
0.0
 40
1.0
 40
1.0
 40
1.0
 40
2.0
 40
2.0
 40
2.0
 40
3.0
 40
3.0
 40
3.0
 40
3.0
 10
422.6954925154386
 20
533.908107625627
 30
0.0
 10
422.7130746244256
 20
533.9068757362893
 30
0.0
 10
422.7306567334089
 20
533.9056438469506
 30
0.0
 10
422.7478179429708
 20
533.9019087425695
 30
0.0
 10
422.7652887181429
 20
533.8981062618268
 30
0.0
 10
422.7823232719893
 20
533.8917094421049
 30
0.0
 10
422.7981987689672
 20
533.8834909073348
 30
0.0
 10
422.8337069803892
 20
533.8651087760126
 30
0.0
 10
422.8634167983727
 20
533.8376131828136
 30
0.0
 10
422.8931266163526
 20
533.8101175896163
 30
0.0
  0
SPLINE
  5
1AF
330
70
100
AcDbEntity
  8
0
 62
    18
420
        0
370
     9
100
AcDbSpline
210
0.0
220
0.0
230
1.0
 70
     8
 71
     3
 72
    17
 73
    13
 74
     0
 42
0.0000000001
 43
0.0000000001
 40
0.0
 40
0.0
 40
0.0
 40
0.0
 40
1.0
 40
1.0
 40
1.0
 40
2.0
 40
2.0
 40
2.0
 40
3.0
 40
3.0
 40
3.0
 40
4.0
 40
4.0
 40
4.0
 40
4.0
 10
258.50642205226
 20
530.9741881958471
 30
0.0
 10
258.4927680789333
 20
530.9753195019457
 30
0.0
 10
258.4791141056103
 20
530.9764508080434
 30
0.0
 10
258.4664571379381
 20
530.980863916061
 30
0.0
 10
258.4537983900882
 20
530.9852776447733
 30
0.0
 10
258.4421369283627
 20
530.9929740986254
 30
0.0
 10
258.4321546648698
 20
531.0024407974696
 30
0.0
 10
258.4221805157012
 20
531.0118998010803
 30
0.0
 10
258.4138828359228
 20
531.0231261728768
 30
0.0
 10
258.4088045452791
 20
531.0355213753219
 30
0.0
 10
258.4037196780428
 20
531.0479326300501
 30
0.0
 10
258.4018625438184
 20
531.0615157447519
 30
0.0
 10
258.4000054095923
 20
531.0750988594518
 30
0.0
  0
LINE
  5
1B0
330
70
100
AcDbEntity
  8
0
 62
    18
420
        0
370
     9
100
AcDbLine
 10
258.4000054096077
 20
531.0750988594545
 30
0.0
 11
258.7319585775085
 21
531.0750988594545
 31
0.0
  0
LINE
  5
1B1
330
70
100
AcDbEntity
  8
0
 62
    18
420
        0
370
     9
100
AcDbLine
 10
258.8259625529081
 20
530.9741881958534
 30
0.0
 11
258.5064220523072
 21
530.9741881958534
 31
0.0
  0
LINE
  5
1B2
330
70
100
AcDbEntity
  8
0
 62
    18
420
        0
370
     9
100
AcDbLine
 10
258.4000054096077
 20
531.0750988594545
 30
0.0
 11
258.4260079359083
 21
533.8746098152532
 31
0.0
  0
LINE
  5
1B3
330
70
100
AcDbEntity
  8
0
 62
    18
420
        0
370
     9
100
AcDbLine
 10
258.4260079359083
 20
533.8746098152532
 30
0.0
 11
258.4971684312058
 21
533.8642386070524
 31
0.0
  0
LWPOLYLINE
  5
1B4
330
70
100
AcDbEntity
  8
0
 62
    18
420
        0
370
     9
100
AcDbPolyline
 90
        9
 70
     0
 43
0.0
 10
418.3700803016072
 20
533.800580846454
 10
418.370087752206
 20
533.812799798653
 10
418.3700952028084
 20
533.8255551926531
 10
418.3701026534071
 20
533.8386682144519
 10
418.3701026534071
 20
533.8520792595527
 10
418.3701101040059
 20
533.865847932454
 10
418.3701101040059
 20
533.8797954193532
 10
418.3701175545065
 20
533.8939217201532
 10
418.3701175545065
 20
533.9081076256543
  0
LINE
  5
1B5
330
70
100
AcDbEntity
  8
0
 62
    18
420
        0
370
     9
100
AcDbLine
 10
418.3701175545065
 20
533.9081076256543
 30
0.0
 11
422.6954925154059
 21
533.9081076256543
 31
0.0
  0
LINE
  5
1B6
330
70
100
AcDbEntity
  8
0
 62
    18
420
        0
370
     9
100
AcDbLine
 10
418.127422342206
 20
533.7536123863528
 30
0.0
 11
418.1958112215069
 21
533.7536123863528
 31
0.0
  0
SPLINE
  5
1B7
330
70
100
AcDbEntity
  8
0
 62
    18
420
        0
370
     9
100
AcDbSpline
210
0.0
220
0.0
230
1.0
 70
     8
 71
     3
 72
    23
 73
    19
 74
     0
 42
0.0000000001
 43
0.0000000001
 40
0.0
 40
0.0
 40
0.0
 40
0.0
 40
1.0
 40
1.0
 40
1.0
 40
2.0
 40
2.0
 40
2.0
 40
3.0
 40
3.0
 40
3.0
 40
4.0
 40
4.0
 40
4.0
 40
5.0
 40
5.0
 40
5.0
 40
6.0
 40
6.0
 40
6.0
 40
6.0
 10
418.1274223421751
 20
533.7536123863683
 30
0.0
 10
418.129427999178
 20
533.767380384289
 30
0.0
 10
418.131433656179
 20
533.7811483822052
 30
0.0
 10
418.1352827047049
 20
533.7945011726842
 30
0.0
 10
418.1392439846113
 20
533.8082433066838
 30
0.0
 10
418.1451577233056
 20
533.8215456668176
 30
0.0
 10
418.1532088016211
 20
533.8334230057226
 30
0.0
 10
418.1603189636953
 20
533.8439122596228
 30
0.0
 10
418.16909608292
 20
533.8532901088147
 30
0.0
 10
418.1790399645506
 20
533.8610795608992
 30
0.0
 10
418.190035955482
 20
533.8696931735357
 30
0.0
 10
418.2024586681636
 20
533.876364487819
 30
0.0
 10
418.215316841477
 20
533.8819411865697
 30
0.0
 10
418.2387425422639
 20
533.892101111558
 30
0.0
 10
418.2636136013879
 20
533.8986278454667
 30
0.0
 10
418.2887646650015
 20
533.9023855797277
 30
0.0
 10
418.3156686975344
 20
533.9064052190715
 30
0.0
 10
418.3428931260368
 20
533.9072564223479
 30
0.0
 10
418.3701175545393
 20
533.908107625627
 30
0.0
  0
LINE
  5
1B8
330
70
100
AcDbEntity
  8
0
 62
    18
420
        0
370
     9
100
AcDbLine
 10
418.127422342206
 20
530.8306602112543
 30
0.0
 11
418.127422342206
 21
533.7536123863528
 31
0.0
  0
LINE
  5
1B9
330
70
100
AcDbEntity
  8
0
 62
    18
420
        0
370
     9
100
AcDbLine
 10
417.9161685799081
 20
530.6283024422518
 30
0.0
 11
417.9280373548063
 21
530.692019807454
 31
0.0
  0
LINE
  5
1BA
330
70
100
AcDbEntity
  8
0
 62
    18
420
        0
370
     9
100
AcDbLine
 10
417.9280373548063
 20
530.692019807454
 30
0.0
 11
418.2123887633061
 21
530.692019807454
 31
0.0
  0
LINE
  5
1BB
330
70
100
AcDbEntity
  8
0
 62
    18
420
        0
370
     9
100
AcDbLine
 10
422.9066866730063
 20
530.6283024422518
 30
0.0
 11
421.9121161197072
 21
530.6283024422518
 31
0.0
  0
LINE
  5
1BC
330
70
100
AcDbEntity
  8
0
 62
    18
420
        0
370
     9
100
AcDbLine
 10
421.9121161197072
 20
530.6283024422518
 30
0.0
 11
421.8121889328067
 21
530.5782345406533
 31
0.0
  0
LINE
  5
1BD
330
70
100
AcDbEntity
  8
0
 62
    18
420
        0
370
     9
100
AcDbLine
 10
421.8121889328067
 20
530.578413354553
 30
0.0
 11
419.0119999741055
 21
530.578413354553
 31
0.0
  0
LINE
  5
1BE
330
70
100
AcDbEntity
  8
0
 62
    18
420
        0
370
     9
100
AcDbLine
 10
419.0119999741055
 20
530.5782345406533
 30
0.0
 11
418.9107391332072
 21
530.6283024422518
 31
0.0
  0
LINE
  5
1BF
330
70
100
AcDbEntity
  8
0
 62
    18
420
        0
370
     9
100
AcDbLine
 10
418.9107391332072
 20
530.6283024422518
 30
0.0
 11
417.9161685799081
 21
530.6283024422518
 31
0.0
  0
SPLINE
  5
1C0
330
70
100
AcDbEntity
  8
0
 62
    18
420
        0
370
     9
100
AcDbSpline
210
0.0
220
0.0
230
1.0
 70
     8
 71
     3
 72
    29
 73
    25
 74
     0
 42
0.0000000001
 43
0.0000000001
 40
0.0
 40
0.0
 40
0.0
 40
0.0
 40
1.0
 40
1.0
 40
1.0
 40
2.0
 40
2.0
 40
2.0
 40
3.0
 40
3.0
 40
3.0
 40
4.0
 40
4.0
 40
4.0
 40
5.0
 40
5.0
 40
5.0
 40
6.0
 40
6.0
 40
6.0
 40
7.0
 40
7.0
 40
7.0
 40
8.0
 40
8.0
 40
8.0
 40
8.0
 10
353.7836662774044
 20
533.5156706444259
 30
0.0
 10
353.7838599408133
 20
533.4038673864361
 30
0.0
 10
353.7840536042204
 20
533.2920641284463
 30
0.0
 10
353.7698882912337
 20
533.1817058197493
 30
0.0
 10
353.7557230966559
 20
533.0713484335328
 30
0.0
 10
353.727199165729
 20
532.9624359724503
 30
0.0
 10
353.6887533311783
 20
532.8574565521703
 30
0.0
 10
353.6503044672226
 20
532.7524688598578
 30
0.0
 10
353.6019321359472
 20
532.6514148281903
 30
0.0
 10
353.5436216090857
 20
532.5563338867651
 30
0.0
 10
353.485304166632
 20
532.461241668795
 30
0.0
 10
353.4170461711219
 20
532.3721239579636
 30
0.0
 10
353.3405113314348
 20
532.2907951942907
 30
0.0
 10
353.2639917124034
 20
532.2094826046568
 30
0.0
 10
353.1791985409345
 20
532.1359558644826
 30
0.0
 10
353.0878397916495
 20
532.0719865433193
 30
0.0
 10
352.9964744354093
 20
532.0080125959748
 30
0.0
 10
352.8985425516858
 20
531.953597450054
 30
0.0
 10
352.7960825060564
 20
531.90884863057
 30
0.0
 10
352.6936210770746
 20
531.8640992069131
 30
0.0
 10
352.5866313639126
 20
531.8290163707143
 30
0.0
 10
352.4773280416685
 20
531.8081763855452
 30
0.0
 10
352.3680247446228
 20
531.7873364051802
 30
0.0
 10
352.256407839559
 20
531.7807392692802
 30
0.0
 10
352.144790934497
 20
531.7741421333785
 30
0.0
  0
SPLINE
  5
1C1
330
70
100
AcDbEntity
  8
0
 62
    18
420
        0
370
     9
100
AcDbSpline
210
0.0
220
0.0
230
1.0
 70
     8
 71
     3
 72
    17
 73
    13
 74
     0
 42
0.0000000001
 43
0.0000000001
 40
0.0
 40
0.0
 40
0.0
 40
0.0
 40
1.0
 40
1.0
 40
1.0
 40
2.0
 40
2.0
 40
2.0
 40
3.0
 40
3.0
 40
3.0
 40
4.0
 40
4.0
 40
4.0
 40
4.0
 10
352.144790934497
 20
535.0579408279882
 30
0.0
 10
352.3516153624914
 20
535.035161917227
 30
0.0
 10
352.5584397904822
 20
535.0123830064648
 30
0.0
 10
352.7500137035786
 20
534.9423078171248
 30
0.0
 10
352.9415870633602
 20
534.8722328301773
 30
0.0
 10
353.1179099963447
 20
534.7548618378568
 30
0.0
 10
353.270002761954
 20
534.6117404571987
 30
0.0
 10
353.422092886809
 20
534.4686215615301
 30
0.0
 10
353.5499536856951
 20
534.2997531717164
 30
0.0
 10
353.6315254216152
 20
534.1127899757839
 30
0.0
 10
353.7131023268557
 20
533.9258149317183
 30
0.0
 10
353.748384302131
 20
533.7207427880721
 30
0.0
 10
353.7836662774044
 20
533.5156706444259
 30
0.0
  0
SPLINE
  5
1C2
330
70
100
AcDbEntity
  8
0
 62
    18
420
        0
370
     9
100
AcDbSpline
210
0.0
220
0.0
230
1.0
 70
     8
 71
     3
 72
    29
 73
    25
 74
     0
 42
0.0000000001
 43
0.0000000001
 40
0.0
 40
0.0
 40
0.0
 40
0.0
 40
1.0
 40
1.0
 40
1.0
 40
2.0
 40
2.0
 40
2.0
 40
3.0
 40
3.0
 40
3.0
 40
4.0
 40
4.0
 40
4.0
 40
5.0
 40
5.0
 40
5.0
 40
6.0
 40
6.0
 40
6.0
 40
7.0
 40
7.0
 40
7.0
 40
8.0
 40
8.0
 40
8.0
 40
8.0
 10
352.144790934497
 20
531.7741421333785
 30
0.0
 10
351.9298966241731
 20
531.7988275859079
 30
0.0
 10
351.7150023138492
 20
531.8235130384382
 30
0.0
 10
351.5164620523392
 20
531.8991330734725
 30
0.0
 10
351.3179257399642
 20
531.9747516043598
 30
0.0
 10
351.1357428258234
 20
532.101302691507
 30
0.0
 10
350.9837902431446
 20
532.2550324074263
 30
0.0
 10
350.8318318989841
 20
532.4087679522063
 30
0.0
 10
350.7101061787817
 20
532.5896841868225
 30
0.0
 10
350.6278694887697
 20
532.7877191177821
 30
0.0
 10
350.5456390870568
 20
532.9857389058397
 30
0.0
 10
350.5028916766459
 20
533.2008747723476
 30
0.0
 10
350.5028878619014
 20
533.4160116783605
 30
0.0
 10
350.5028840468112
 20
533.6311682170753
 30
0.0
 10
350.5456316290292
 20
533.8463257954836
 30
0.0
 10
350.6278694887697
 20
534.0443638435827
 30
0.0
 10
350.7101061327266
 20
534.2423989639319
 30
0.0
 10
350.8318318865877
 20
534.4233150601494
 30
0.0
 10
350.9837902431446
 20
534.5770505539412
 30
0.0
 10
351.1357428382198
 20
534.7307802188716
 30
0.0
 10
351.3179257435077
 20
534.8573313424386
 30
0.0
 10
351.5164620523392
 20
534.9329498878932
 30
0.0
 10
351.7150023103077
 20
535.0085699374967
 30
0.0
 10
351.9298966224014
 20
535.0332553827438
 30
0.0
 10
352.144790934497
 20
535.0579408279882
 30
0.0
  0
SPLINE
  5
1C3
330
70
100
AcDbEntity
  8
0
 62
    18
420
        0
370
     9
100
AcDbSpline
210
0.0
220
0.0
230
1.0
 70
     8
 71
     3
 72
    20
 73
    16
 74
     0
 42
0.0000000001
 43
0.0000000001
 40
0.0
 40
0.0
 40
0.0
 40
0.0
 40
1.0
 40
1.0
 40
1.0
 40
2.0
 40
2.0
 40
2.0
 40
3.0
 40
3.0
 40
3.0
 40
4.0
 40
4.0
 40
4.0
 40
5.0
 40
5.0
 40
5.0
 40
5.0
 10
423.2780459617315
 20
538.3732107750402
 30
0.0
 10
423.3107846599377
 20
538.3698362295417
 30
0.0
 10
423.3435233581421
 20
538.3664616840433
 30
0.0
 10
423.3736592625318
 20
538.354912149095
 30
0.0
 10
423.4039957069726
 20
538.343285757509
 30
0.0
 10
423.4316946016369
 20
538.32337521316
 30
0.0
 10
423.4547960852323
 20
538.2999566666113
 30
0.0
 10
423.4666696689346
 20
538.2879201204969
 30
0.0
 10
423.4773287534408
 20
538.2749568645959
 30
0.0
 10
423.4866920207678
 20
538.260975228929
 30
0.0
 10
423.496269944273
 20
538.2466730593741
 30
0.0
 10
423.5044919554274
 20
538.2313052813961
 30
0.0
 10
423.5104519222914
 20
538.2152584663863
 30
0.0
 10
423.5212895718123
 20
538.1860788147232
 30
0.0
 10
423.524647530994
 20
538.1546538547864
 30
0.0
 10
423.5280054901777
 20
538.1232288948512
 30
0.0
  0
LINE
  5
1C4
330
70
100
AcDbEntity
  8
0
 62
    18
420
        0
370
     9
100
AcDbLine
 10
423.1430861448061
 20
538.3732107750538
 30
0.0
 11
423.278045961706
 21
538.3732107750538
 31
0.0
  0
SPLINE
  5
1C5
330
70
100
AcDbEntity
  8
0
 62
    18
420
        0
370
     9
100
AcDbSpline
210
0.0
220
0.0
230
1.0
 70
     8
 71
     3
 72
    20
 73
    16
 74
     0
 42
0.0000000001
 43
0.0000000001
 40
0.0
 40
0.0
 40
0.0
 40
0.0
 40
1.0
 40
1.0
 40
1.0
 40
2.0
 40
2.0
 40
2.0
 40
3.0
 40
3.0
 40
3.0
 40
4.0
 40
4.0
 40
4.0
 40
5.0
 40
5.0
 40
5.0
 40
5.0
 10
422.8931266163526
 20
538.1232288948512
 30
0.0
 10
422.8965017455356
 20
538.1559662556855
 30
0.0
 10
422.8998768747187
 20
538.188703616518
 30
0.0
 10
422.9114252422987
 20
538.2188347450728
 30
0.0
 10
422.9230468953174
 20
538.2491570844567
 30
0.0
 10
422.9429458499071
 20
538.276840008536
 30
0.0
 10
422.966336021298
 20
538.2999566666113
 30
0.0
 10
422.9783718394373
 20
538.3118517437342
 30
0.0
 10
422.9913320603627
 20
538.3225377670369
 30
0.0
 10
423.0053249095617
 20
538.3319047562117
 30
0.0
 10
423.019630107974
 20
538.3414808358748
 30
0.0
 10
423.0350145499742
 20
538.3496783370528
 30
0.0
 10
423.0510714744286
 20
538.3556274048324
 30
0.0
 10
423.0802614284148
 20
538.3664422414604
 30
0.0
 10
423.111673786605
 20
538.3698265082512
 30
0.0
 10
423.1430861447988
 20
538.3732107750402
 30
0.0
  0
LINE
  5
1C6
330
70
100
AcDbEntity
  8
0
 62
    18
420
        0
370
     9
100
AcDbLine
 10
417.9280373548063
 20
538.1232288948512
 30
0.0
 11
417.9280373548063
 21
530.692019807454
 31
0.0
  0
SPLINE
  5
1C7
330
70
100
AcDbEntity
  8
0
 62
    18
420
        0
370
     9
100
AcDbSpline
210
0.0
220
0.0
230
1.0
 70
     8
 71
     3
 72
    20
 73
    16
 74
     0
 42
0.0000000001
 43
0.0000000001
 40
0.0
 40
0.0
 40
0.0
 40
0.0
 40
1.0
 40
1.0
 40
1.0
 40
2.0
 40
2.0
 40
2.0
 40
3.0
 40
3.0
 40
3.0
 40
4.0
 40
4.0
 40
4.0
 40
5.0
 40
5.0
 40
5.0
 40
5.0
 10
417.6780778263746
 20
538.3732107750402
 30
0.0
 10
417.7108164033816
 20
538.3698361698179
 30
0.0
 10
417.7435549803903
 20
538.366461564593
 30
0.0
 10
417.7736911271749
 20
538.354912149095
 30
0.0
 10
417.8040278156222
 20
538.3432858777532
 30
0.0
 10
417.8317273227439
 20
538.3233756352192
 30
0.0
 10
417.8548279498754
 20
538.2999566666113
 30
0.0
 10
417.8667010933749
 20
538.2879199035714
 30
0.0
 10
417.8773593496389
 20
538.2749562395138
 30
0.0
 10
417.8867238854109
 20
538.260975228929
 30
0.0
 10
417.8963037453322
 20
538.2466727449382
 30
0.0
 10
417.9045297062475
 20
538.2313055916738
 30
0.0
 10
417.9104912375151
 20
538.2152584663863
 30
0.0
 10
417.9213308473172
 20
538.1860806312361
 30
0.0
 10
417.9246841010717
 20
538.1546547630432
 30
0.0
 10
417.9280373548208
 20
538.1232288948512
 30
0.0
  0
LINE
  5
1C8
330
70
100
AcDbEntity
  8
0
 62
    18
420
        0
370
     9
100
AcDbLine
 10
417.5431180094055
 20
538.3732107750538
 30
0.0
 11
417.6780778264055
 21
538.3732107750538
 31
0.0
  0
SPLINE
  5
1C9
330
70
100
AcDbEntity
  8
0
 62
    18
420
        0
370
     9
100
AcDbSpline
210
0.0
220
0.0
230
1.0
 70
     8
 71
     3
 72
    20
 73
    16
 74
     0
 42
0.0000000001
 43
0.0000000001
 40
0.0
 40
0.0
 40
0.0
 40
0.0
 40
1.0
 40
1.0
 40
1.0
 40
2.0
 40
2.0
 40
2.0
 40
3.0
 40
3.0
 40
3.0
 40
4.0
 40
4.0
 40
4.0
 40
5.0
 40
5.0
 40
5.0
 40
5.0
 10
417.2931584809957
 20
538.1232288948512
 30
0.0
 10
417.2965372546859
 20
538.1559657505004
 30
0.0
 10
417.2999160283743
 20
538.1887026061467
 30
0.0
 10
417.3114645575224
 20
538.2188347450728
 30
0.0
 10
417.3230857104244
 20
538.249156372115
 30
0.0
 10
417.3429796940545
 20
538.276840419533
 30
0.0
 10
417.3663678859411
 20
538.2999566666113
 30
0.0
 10
417.3784031985851
 20
538.3118520393764
 30
0.0
 10
417.3913637849836
 20
538.3225378489287
 30
0.0
 10
417.4053567742048
 20
538.3319047562117
 30
0.0
 10
417.4196621157643
 20
538.341480752153
 30
0.0
 10
417.4350464652852
 20
538.3496783074178
 30
0.0
 10
417.4511033390699
 20
538.3556274048324
 30
0.0
 10
417.4802932009442
 20
538.3664422953334
 30
0.0
 10
417.5117056051931
 20
538.3698265351868
 30
0.0
 10
417.5431180094419
 20
538.3732107750402
 30
0.0
  0
LINE
  5
1CA
330
70
100
AcDbEntity
  8
0
 62
    18
420
        0
370
     9
100
AcDbLine
 10
417.2931584810067
 20
530.0360706917517
 30
0.0
 11
417.2931584810067
 21
538.1232288948512
 31
0.0
  0
LINE
  5
1CB
330
70
100
AcDbEntity
  8
0
 62
    18
420
        0
370
     9
100
AcDbLine
 10
423.5280054902068
 20
530.0360706917517
 30
0.0
 11
417.2931584810067
 21
530.0360706917517
 31
0.0
  0
LINE
  5
1CC
330
70
100
AcDbEntity
  8
0
 62
    18
420
        0
370
     9
100
AcDbLine
 10
423.5280054902068
 20
538.1232288948512
 30
0.0
 11
423.5280054902068
 21
530.0360706917517
 31
0.0
  0
LINE
  5
1CD
330
70
100
AcDbEntity
  8
0
 62
    18
420
        0
370
     9
100
AcDbLine
 10
411.0044288729059
 20
538.303473340653
 30
0.0
 11
411.0044288729059
 21
543.0346516243544
 31
0.0
  0
LINE
  5
1CE
330
70
100
AcDbEntity
  8
0
 62
    18
420
        0
370
     9
100
AcDbLine
 10
414.5288589691081
 20
538.303473340653
 30
0.0
 11
411.0044288729059
 21
538.303473340653
 31
0.0
  0
LINE
  5
1CF
330
70
100
AcDbEntity
  8
0
 62
    18
420
        0
370
     9
100
AcDbLine
 10
414.5288589691081
 20
543.0346516243544
 30
0.0
 11
414.5288589691081
 21
538.303473340653
 31
0.0
  0
LINE
  5
1D0
330
70
100
AcDbEntity
  8
0
 62
    18
420
        0
370
     9
100
AcDbLine
 10
411.0044288729059
 20
543.0346516243544
 30
0.0
 11
414.5288589691081
 21
543.0346516243544
 31
0.0
  0
LINE
  5
1D1
330
70
100
AcDbEntity
  8
0
 62
    18
420
        0
370
     9
100
AcDbLine
 10
336.2713310973086
 20
543.6360028854514
 30
0.0
 11
338.8951161225068
 21
543.6360028854514
 31
0.0
  0
SPLINE
  5
1D2
330
70
100
AcDbEntity
  8
0
 62
    18
420
        0
370
     9
100
AcDbSpline
210
0.0
220
0.0
230
1.0
 70
     8
 71
     3
 72
    23
 73
    19
 74
     0
 42
0.0000000001
 43
0.0000000001
 40
0.0
 40
0.0
 40
0.0
 40
0.0
 40
1.0
 40
1.0
 40
1.0
 40
2.0
 40
2.0
 40
2.0
 40
3.0
 40
3.0
 40
3.0
 40
4.0
 40
4.0
 40
4.0
 40
5.0
 40
5.0
 40
5.0
 40
6.0
 40
6.0
 40
6.0
 40
6.0
 10
335.8718789579398
 20
543.2351020447249
 30
0.0
 10
335.8772285037958
 20
543.2855364533443
 30
0.0
 10
335.8825780496482
 20
543.3359708619645
 30
0.0
 10
335.8999188105627
 20
543.3827427498327
 30
0.0
 10
335.9092322816778
 20
543.4078632522532
 30
0.0
 10
335.9220047485924
 20
543.4319272609164
 30
0.0
 10
335.9368583817086
 20
543.4545067421423
 30
0.0
 10
335.9520508660098
 20
543.4776013218516
 30
0.0
 10
335.969420553547
 20
543.4991428694538
 30
0.0
 10
335.9888389288499
 20
543.5186413399206
 30
0.0
 10
336.0077983489919
 20
543.5376789621705
 30
0.0
 10
336.0287107594668
 20
543.5547689426321
 30
0.0
 10
336.0511405673879
 20
543.5697821251388
 30
0.0
 10
336.074077264946
 20
543.5851345894925
 30
0.0
 10
336.0986007180163
 20
543.5983153284251
 30
0.0
 10
336.1242376897535
 20
543.6078694931484
 30
0.0
 10
336.170818178005
 20
543.6252287063334
 30
0.0
 10
336.2210746376677
 20
543.6306157959088
 30
0.0
 10
336.2713310973304
 20
543.6360028854833
 30
0.0
  0
LINE
  5
1D3
330
70
100
AcDbEntity
  8
0
 62
    18
420
        0
370
     9
100
AcDbLine
 10
335.871878957907
 20
542.1360519997533
 30
0.0
 11
335.871878957907
 21
543.2351020447522
 31
0.0
  0
SPLINE
  5
1D4
330
70
100
AcDbEntity
  8
0
 62
    18
420
        0
370
     9
100
AcDbSpline
210
0.0
220
0.0
230
1.0
 70
     8
 71
     3
 72
    17
 73
    13
 74
     0
 42
0.0000000001
 43
0.0000000001
 40
0.0
 40
0.0
 40
0.0
 40
0.0
 40
1.0
 40
1.0
 40
1.0
 40
2.0
 40
2.0
 40
2.0
 40
3.0
 40
3.0
 40
3.0
 40
4.0
 40
4.0
 40
4.0
 40
4.0
 10
336.08322317489
 20
541.9246939293371
 30
0.0
 10
336.0555315870643
 20
541.9278760054157
 30
0.0
 10
336.0278399992367
 20
541.9310580814972
 30
0.0
 10
336.0023451434518
 20
541.9407871834255
 30
0.0
 10
335.976857058753
 20
541.9505137014403
 30
0.0
 10
335.9535645394117
 20
541.9667837681617
 30
0.0
 10
335.9337801277707
 20
541.986563550613
 30
0.0
 10
335.9139827902
 20
542.0063562559708
 30
0.0
 10
335.8976981457963
 20
542.0296632646177
 30
0.0
 10
335.8879665658879
 20
542.0551684967513
 30
0.0
 10
335.8782382531863
 20
542.0806651659395
 30
0.0
 10
335.8750586055649
 20
542.1083585828264
 30
0.0
 10
335.8718789579398
 20
542.1360519997096
 30
0.0
  0
LINE
  5
1D5
330
70
100
AcDbEntity
  8
0
 62
    18
420
        0
370
     9
100
AcDbLine
 10
339.0832225607082
 20
541.9246939293525
 30
0.0
 11
336.0832231749082
 21
541.9246939293525
 31
0.0
  0
SPLINE
  5
1D6
330
70
100
AcDbEntity
  8
0
 62
    18
420
        0
370
     9
100
AcDbSpline
210
0.0
220
0.0
230
1.0
 70
     8
 71
     3
 72
    17
 73
    13
 74
     0
 42
0.0000000001
 43
0.0000000001
 40
0.0
 40
0.0
 40
0.0
 40
0.0
 40
1.0
 40
1.0
 40
1.0
 40
2.0
 40
2.0
 40
2.0
 40
3.0
 40
3.0
 40
3.0
 40
4.0
 40
4.0
 40
4.0
 40
4.0
 10
339.2945664283889
 20
542.135157930039
 30
0.0
 10
339.2912962023402
 20
542.1075364657872
 30
0.0
 10
339.2880259762933
 20
542.0799150015327
 30
0.0
 10
339.2782294006138
 20
542.0545128456579
 30
0.0
 10
339.2684390848263
 20
542.029126921443
 30
0.0
 10
339.2521307572497
 20
542.0059574702918
 30
0.0
 10
339.2323580385237
 20
541.9862655273901
 30
0.0
 10
339.2125797759545
 20
541.9665680632924
 30
0.0
 10
339.1893351792751
 20
541.9503500577539
 30
0.0
 10
339.1638997756927
 20
541.9406679741369
 30
0.0
 10
339.1384675443387
 20
541.9309870980423
 30
0.0
 10
339.1108450525134
 20
541.9278405136902
 30
0.0
 10
339.0832225606828
 20
541.9246939293371
 30
0.0
  0
LINE
  5
1D7
330
70
100
AcDbEntity
  8
0
 62
    18
420
        0
370
     9
100
AcDbLine
 10
339.2945682910067
 20
543.2351020447522
 30
0.0
 11
339.2945664284089
 21
542.1351579300535
 31
0.0
  0
SPLINE
  5
1D8
330
70
100
AcDbEntity
  8
0
 62
    18
420
        0
370
     9
100
AcDbSpline
210
0.0
220
0.0
230
1.0
 70
     8
 71
     3
 72
    23
 73
    19
 74
     0
 42
0.0000000001
 43
0.0000000001
 40
0.0
 40
0.0
 40
0.0
 40
0.0
 40
1.0
 40
1.0
 40
1.0
 40
2.0
 40
2.0
 40
2.0
 40
3.0
 40
3.0
 40
3.0
 40
4.0
 40
4.0
 40
4.0
 40
5.0
 40
5.0
 40
5.0
 40
6.0
 40
6.0
 40
6.0
 40
6.0
 10
338.8951161225396
 20
543.6360028854833
 30
0.0
 10
338.9453782977453
 20
543.6306274085491
 30
0.0
 10
338.9956404729492
 20
543.6252519316158
 30
0.0
 10
339.0422094428032
 20
543.6078694931484
 30
0.0
 10
339.06725853034
 20
543.5985196143783
 30
0.0
 10
339.0912390699268
 20
543.585695784689
 30
0.0
 10
339.1137254704791
 20
543.5707954040999
 30
0.0
 10
339.1367461314294
 20
543.5555410013858
 30
0.0
 10
339.1582008105979
 20
543.5381102008968
 30
0.0
 10
339.1776081454991
 20
543.5186413399206
 30
0.0
 10
339.1965891714172
 20
543.4996001394365
 30
0.0
 10
339.2136118106791
 20
543.4786094326937
 30
0.0
 10
339.2285603378969
 20
543.4561160675512
 30
0.0
 10
339.2438717341574
 20
543.4330766856792
 30
0.0
 10
339.257007099839
 20
543.4084608071862
 30
0.0
 10
339.2665282637882
 20
543.3827427498327
 30
0.0
 10
339.2838476604447
 20
543.3359605245668
 30
0.0
 10
339.2892079757403
 20
543.2855312846468
 30
0.0
 10
339.2945682910322
 20
543.2351020447249
 30
0.0
  0
LINE
  5
1D9
330
70
100
AcDbEntity
  8
0
 62
    18
420
        0
370
     9
100
AcDbLine
 10
344.8718731572062
 20
542.1360519997533
 30
0.0
 11
344.8718731572062
 21
543.2351020447522
 31
0.0
  0
SPLINE
  5
1DA
330
70
100
AcDbEntity
  8
0
 62
    18
420
        0
370
     9
100
AcDbSpline
210
0.0
220
0.0
230
1.0
 70
     8
 71
     3
 72
    17
 73
    13
 74
     0
 42
0.0000000001
 43
0.0000000001
 40
0.0
 40
0.0
 40
0.0
 40
0.0
 40
1.0
 40
1.0
 40
1.0
 40
2.0
 40
2.0
 40
2.0
 40
3.0
 40
3.0
 40
3.0
 40
4.0
 40
4.0
 40
4.0
 40
4.0
 10
345.0832172577339
 20
541.9246939293371
 30
0.0
 10
345.0555257050182
 20
541.9278760035913
 30
0.0
 10
345.0278341523044
 20
541.9310580778419
 30
0.0
 10
345.0023393427073
 20
541.9407871834255
 30
0.0
 10
344.9768512988321
 20
541.9505137071373
 30
0.0
 10
344.9535588323052
 20
541.9667837877868
 30
0.0
 10
344.9337744434415
 20
541.986563550613
 30
0.0
 10
344.9139770976599
 20
542.0063562673358
 30
0.0
 10
344.8976924259732
 20
542.0296632647668
 30
0.0
 10
344.8879608233529
 20
542.0551684967513
 30
0.0
 10
344.8782324904223
 20
542.0806651593093
 30
0.0
 10
344.8750528238088
 20
542.1083585795095
 30
0.0
 10
344.871873157199
 20
542.1360519997096
 30
0.0
  0
LINE
  5
1DB
330
70
100
AcDbEntity
  8
0
 62
    18
420
        0
370
     9
100
AcDbLine
 10
348.0832168181077
 20
541.9246939293525
 30
0.0
 11
345.0832172577066
 21
541.9246939293525
 31
0.0
  0
SPLINE
  5
1DC
330
70
100
AcDbEntity
  8
0
 62
    18
420
        0
370
     9
100
AcDbSpline
210
0.0
220
0.0
230
1.0
 70
     8
 71
     3
 72
    17
 73
    13
 74
     0
 42
0.0000000001
 43
0.0000000001
 40
0.0
 40
0.0
 40
0.0
 40
0.0
 40
1.0
 40
1.0
 40
1.0
 40
2.0
 40
2.0
 40
2.0
 40
3.0
 40
3.0
 40
3.0
 40
4.0
 40
4.0
 40
4.0
 40
4.0
 10
348.2945599873601
 20
542.135157930039
 30
0.0
 10
348.2912900452829
 20
542.107536460915
 30
0.0
 10
348.2880201032058
 20
542.079914991792
 30
0.0
 10
348.2782236580788
 20
542.0545128456579
 30
0.0
 10
348.2684334562582
 20
542.0291268883911
 30
0.0
 10
348.2521250674618
 20
542.0059574262523
 30
0.0
 10
348.2323522959887
 20
541.9862655273901
 30
0.0
 10
348.2125738874638
 20
541.9665680145344
 30
0.0
 10
348.1893291206507
 20
541.9503500480868
 30
0.0
 10
348.1638935674983
 20
541.9406679741369
 30
0.0
 10
348.1384614476774
 20
541.9309872070908
 30
0.0
 10
348.1108391329144
 20
541.9278405682153
 30
0.0
 10
348.0832168181478
 20
541.9246939293371
 30
0.0
  0
LINE
  5
1DD
330
70
100
AcDbEntity
  8
0
 62
    18
420
        0
370
     9
100
AcDbLine
 10
348.2945618500089
 20
543.2351020447522
 30
0.0
 11
348.2945618500089
 21
542.1351579300535
 31
0.0
  0
SPLINE
  5
1DE
330
70
100
AcDbEntity
  8
0
 62
    18
420
        0
370
     9
100
AcDbSpline
210
0.0
220
0.0
230
1.0
 70
     8
 71
     3
 72
    23
 73
    19
 74
     0
 42
0.0000000001
 43
0.0000000001
 40
0.0
 40
0.0
 40
0.0
 40
0.0
 40
1.0
 40
1.0
 40
1.0
 40
2.0
 40
2.0
 40
2.0
 40
3.0
 40
3.0
 40
3.0
 40
4.0
 40
4.0
 40
4.0
 40
5.0
 40
5.0
 40
5.0
 40
6.0
 40
6.0
 40
6.0
 40
6.0
 10
347.8951110784947
 20
543.6360028854833
 30
0.0
 10
347.945373236882
 20
543.6306275053275
 30
0.0
 10
347.9956353952657
 20
543.6252521251708
 30
0.0
 10
348.0422041659313
 20
543.6078694931484
 30
0.0
 10
348.0672529917447
 20
543.5985195679641
 30
0.0
 10
348.0912332300322
 20
543.5856956507396
 30
0.0
 10
348.1137194951116
 20
543.5707954040999
 30
0.0
 10
348.1367402952819
 20
543.555540954363
 30
0.0
 10
348.1581952496708
 20
543.5381102864457
 30
0.0
 10
348.1776026357948
 20
543.5186413399206
 30
0.0
 10
348.196583559562
 20
543.4996002084999
 30
0.0
 10
348.2136059138356
 20
543.4786093934608
 30
0.0
 10
348.2285543625294
 20
543.4561160675512
 30
0.0
 10
348.2438657540406
 20
543.4330766119956
 30
0.0
 10
348.2570013100849
 20
543.4084607990253
 30
0.0
 10
348.2665225212532
 20
543.3827427498327
 30
0.0
 10
348.2838419663567
 20
543.3359606405783
 30
0.0
 10
348.289201908181
 20
543.2855313426507
 30
0.0
 10
348.2945618500053
 20
543.2351020447249
 30
0.0
  0
LINE
  5
1DF
330
70
100
AcDbEntity
  8
0
 62
    18
420
        0
370
     9
100
AcDbLine
 10
345.2713248600085
 20
543.6360028854514
 30
0.0
 11
347.8951110785056
 21
543.6360028854514
 31
0.0
  0
SPLINE
  5
1E0
330
70
100
AcDbEntity
  8
0
 62
    18
420
        0
370
     9
100
AcDbSpline
210
0.0
220
0.0
230
1.0
 70
     8
 71
     3
 72
    23
 73
    19
 74
     0
 42
0.0000000001
 43
0.0000000001
 40
0.0
 40
0.0
 40
0.0
 40
0.0
 40
1.0
 40
1.0
 40
1.0
 40
2.0
 40
2.0
 40
2.0
 40
3.0
 40
3.0
 40
3.0
 40
4.0
 40
4.0
 40
4.0
 40
5.0
 40
5.0
 40
5.0
 40
6.0
 40
6.0
 40
6.0
 40
6.0
 10
344.871873157199
 20
543.2351020447249
 30
0.0
 10
344.8772224093882
 20
543.2855364889392
 30
0.0
 10
344.8825716615756
 20
543.3359709331535
 30
0.0
 10
344.8999124859529
 20
543.3827427498327
 30
0.0
 10
344.9092260187244
 20
543.4078632883966
 30
0.0
 10
344.9219986707958
 20
543.4319272961429
 30
0.0
 10
344.9368524645506
 20
543.4545067421423
 30
0.0
 10
344.9520451117751
 20
543.4776012837301
 30
0.0
 10
344.9694149361894
 20
543.4991427575969
 30
0.0
 10
344.9888333027302
 20
543.5186413399206
 30
0.0
 10
345.007792524073
 20
543.5376788803505
 30
0.0
 10
345.0287045577279
 20
543.5547689950026
 30
0.0
 10
345.0511341263591
 20
543.5697821251388
 30
0.0
 10
345.0740708877493
 20
543.5851347424468
 30
0.0
 10
345.0985945911634
 20
543.5983153808201
 30
0.0
 10
345.1242317725974
 20
543.6078694931484
 30
0.0
 10
345.1708122814998
 20
543.6252284768434
 30
0.0
 10
345.2210685707669
 20
543.6306156811651
 30
0.0
 10
345.2713248600303
 20
543.6360028854833
 30
0.0
  0
LINE
  5
1E1
330
70
100
AcDbEntity
  8
0
 62
    18
420
        0
370
     9
100
AcDbLine
 10
258.0277893041084
 20
534.1889051071521
 30
0.0
 11
266.6186961626063
 21
534.1889051071521
 31
0.0
  0
LINE
  5
1E2
330
70
100
AcDbEntity
  8
0
 62
    18
420
        0
370
     9
100
AcDbLine
 10
258.0277893041084
 20
530.664184438353
 30
0.0
 11
258.0277893041084
 21
534.1889051071521
 31
0.0
  0
LINE
  5
1E3
330
70
100
AcDbEntity
  8
0
 62
    18
420
        0
370
     9
100
AcDbLine
 10
266.6186961626063
 20
530.664184438353
 30
0.0
 11
258.0277893041084
 21
530.664184438353
 31
0.0
  0
LINE
  5
1E4
330
70
100
AcDbEntity
  8
0
 62
    18
420
        0
370
     9
100
AcDbLine
 10
266.6186961626063
 20
534.1889051071521
 30
0.0
 11
266.6186961626063
 21
530.664184438353
 31
0.0
  0
SPLINE
  5
1E5
330
70
100
AcDbEntity
  8
0
 62
    18
420
        0
370
     9
100
AcDbSpline
210
0.0
220
0.0
230
1.0
 70
     8
 71
     3
 72
    17
 73
    13
 74
     0
 42
0.0000000001
 43
0.0000000001
 40
0.0
 40
0.0
 40
0.0
 40
0.0
 40
1.0
 40
1.0
 40
1.0
 40
2.0
 40
2.0
 40
2.0
 40
3.0
 40
3.0
 40
3.0
 40
4.0
 40
4.0
 40
4.0
 40
4.0
 10
333.7515372597682
 20
545.4247382751937
 30
0.0
 10
333.7280304290652
 20
545.383501418014
 30
0.0
 10
333.704523598366
 20
545.3422645608343
 30
0.0
 10
333.6743033771454
 20
545.3063634506698
 30
0.0
 10
333.6440842026204
 20
545.2704635839627
 30
0.0
 10
333.6071521026133
 20
545.2398990946631
 30
0.0
 10
333.5670334101706
 20
545.2143338791366
 30
0.0
 10
333.5269131494042
 20
545.1887676642118
 30
0.0
 10
333.4836060470589
 20
545.16820111393
 30
0.0
 10
333.4382980876672
 20
545.1559809319006
 30
0.0
 10
333.3929936348868
 20
545.1437616956527
 30
0.0
 10
333.3456886347613
 20
545.1398875357772
 30
0.0
 10
333.2983836346357
 20
545.1360133759008
 30
0.0
  0
LINE
  5
1E6
330
70
100
AcDbEntity
  8
0
 62
    18
420
        0
370
     9
100
AcDbLine
 10
334.0293784906062
 20
546.0205463043539
 30
0.0
 11
333.7515372598082
 21
545.4247382751518
 31
0.0
  0
SPLINE
  5
1E7
330
70
100
AcDbEntity
  8
0
 62
    18
420
        0
370
     9
100
AcDbSpline
210
0.0
220
0.0
230
1.0
 70
     8
 71
     3
 72
    17
 73
    13
 74
     0
 42
0.0000000001
 43
0.0000000001
 40
0.0
 40
0.0
 40
0.0
 40
0.0
 40
1.0
 40
1.0
 40
1.0
 40
2.0
 40
2.0
 40
2.0
 40
3.0
 40
3.0
 40
3.0
 40
4.0
 40
4.0
 40
4.0
 40
4.0
 10
334.210639940673
 20
546.1360005012966
 30
0.0
 10
334.1917198150186
 20
546.1344472170794
 30
0.0
 10
334.1727996893587
 20
546.1328939328596
 30
0.0
 10
334.1546742060273
 20
546.1280134788967
 30
0.0
 10
334.1365520085601
 20
546.1231339096875
 30
0.0
 10
334.1192241653335
 20
546.11492837695
 30
0.0
 10
334.1031799838948
 20
546.1047080627913
 30
0.0
 10
334.0871278781742
 20
546.0944827007797
 30
0.0
 10
334.0723607025684
 20
546.0822405666376
 30
0.0
 10
334.0602720902371
 20
546.0678723923193
 30
0.0
 10
334.0481906260466
 20
546.0535127140783
 30
0.0
 10
334.0387845583355
 20
546.0370295092206
 30
0.0
 10
334.0293784906226
 20
546.0205463043685
 30
0.0
  0
LINE
  5
1E8
330
70
100
AcDbEntity
  8
0
 62
    18
420
        0
370
     9
100
AcDbLine
 10
349.9558010419059
 20
546.1360005012521
 30
0.0
 11
334.2106399407076
 21
546.1360005012521
 31
0.0
  0
SPLINE
  5
1E9
330
70
100
AcDbEntity
  8
0
 62
    18
420
        0
370
     9
100
AcDbSpline
210
0.0
220
0.0
230
1.0
 70
     8
 71
     3
 72
    17
 73
    13
 74
     0
 42
0.0000000001
 43
0.0000000001
 40
0.0
 40
0.0
 40
0.0
 40
0.0
 40
1.0
 40
1.0
 40
1.0
 40
2.0
 40
2.0
 40
2.0
 40
3.0
 40
3.0
 40
3.0
 40
4.0
 40
4.0
 40
4.0
 40
4.0
 10
350.1370624919473
 20
546.0205463043685
 30
0.0
 10
350.1276563368665
 20
546.0370295063531
 30
0.0
 10
350.1182501817839
 20
546.0535127083403
 30
0.0
 10
350.1061686595022
 20
546.0678723923193
 30
0.0
 10
350.094080016268
 20
546.0822405400213
 30
0.0
 10
350.0793128511359
 20
546.0944826657396
 30
0.0
 10
350.0632607658445
 20
546.1047080627913
 30
0.0
 10
350.0472167252447
 20
546.1149283352642
 30
0.0
 10
350.029889052068
 20
546.1231338999787
 30
0.0
 10
350.0117670093714
 20
546.1280134788967
 30
0.0
 10
349.9936414708936
 20
546.1328939990989
 30
0.0
 10
349.9747212563962
 20
546.1344472501978
 30
0.0
 10
349.9558010418969
 20
546.1360005012966
 30
0.0
  0
LINE
  5
1EA
330
70
100
AcDbEntity
  8
0
 62
    18
420
        0
370
     9
100
AcDbLine
 10
350.4149039556087
 20
545.4247382751518
 30
0.0
 11
350.1370624919073
 21
546.0205463043539
 31
0.0
  0
SPLINE
  5
1EB
330
70
100
AcDbEntity
  8
0
 62
    18
420
        0
370
     9
100
AcDbSpline
210
0.0
220
0.0
230
1.0
 70
     8
 71
     3
 72
    17
 73
    13
 74
     0
 42
0.0000000001
 43
0.0000000001
 40
0.0
 40
0.0
 40
0.0
 40
0.0
 40
1.0
 40
1.0
 40
1.0
 40
2.0
 40
2.0
 40
2.0
 40
3.0
 40
3.0
 40
3.0
 40
4.0
 40
4.0
 40
4.0
 40
4.0
 10
350.868057580763
 20
545.1360133759008
 30
0.0
 10
350.8207525931029
 20
545.1398875631521
 30
0.0
 10
350.7734476054393
 20
545.1437617504016
 30
0.0
 10
350.7281431277352
 20
545.1559809319006
 30
0.0
 10
350.6828350074611
 20
545.1682010958438
 30
0.0
 10
350.6395277188458
 20
545.1887675959997
 30
0.0
 10
350.5994073395687
 20
545.2143338791366
 30
0.0
 10
350.5592886991581
 20
545.2398990541978
 30
0.0
 10
350.5223566918394
 20
545.2704635788531
 30
0.0
 10
350.4921376054245
 20
545.3063634506698
 30
0.0
 10
350.4619174617328
 20
545.3422645785122
 30
0.0
 10
350.4384107086844
 20
545.3835014268515
 30
0.0
 10
350.4149039556342
 20
545.4247382751937
 30
0.0
  0
LINE
  5
1EC
330
70
100
AcDbEntity
  8
0
 62
    18
420
        0
370
     9
100
AcDbLine
 10
350.8680575808067
 20
545.1360133758535
 30
0.0
 11
424.7052717303067
 21
545.1360133758535
 31
0.0
  0
LINE
  5
1ED
330
70
100
AcDbEntity
  8
0
 62
    18
420
        0
370
     9
100
AcDbLine
 10
424.7048023437055
 20
529.9188879600533
 30
0.0
 11
424.7052717303067
 21
545.1360133758535
 31
0.0
  0
LINE
  5
1EE
330
70
100
AcDbEntity
  8
0
 62
    18
420
        0
370
     9
100
AcDbLine
 10
248.5322404002072
 20
529.9188879600533
 30
0.0
 11
424.7048023437055
 21
529.9188879600533
 31
0.0
  0
LINE
  5
1EF
330
70
100
AcDbEntity
  8
0
 62
    18
420
        0
370
     9
100
AcDbLine
 10
248.5317859148072
 20
545.1360133758535
 30
0.0
 11
248.5322404002072
 21
529.9188879600533
 31
0.0
  0
LINE
  5
1F0
330
70
100
AcDbEntity
  8
0
 62
    18
420
        0
370
     9
100
AcDbLine
 10
248.5317859148072
 20
545.1360133758535
 30
0.0
 11
269.4784078096073
 21
545.1360133758535
 31
0.0
  0
LINE
  5
1F1
330
70
100
AcDbEntity
  8
0
 62
    18
420
        0
370
     9
100
AcDbLine
 10
269.4512355422085
 20
533.5156706444522
 30
0.0
 11
269.4784078096073
 21
545.1360133758535
 31
0.0
  0
LINE
  5
1F2
330
70
100
AcDbEntity
  8
0
 62
    18
420
        0
370
     9
100
AcDbLine
 10
273.3495208715085
 20
533.5156706444522
 30
0.0
 11
269.4512355422085
 21
533.5156706444522
 31
0.0
  0
LINE
  5
1F3
330
70
100
AcDbEntity
  8
0
 62
    18
420
        0
370
     9
100
AcDbLine
 10
273.3199122642072
 20
545.1360133758535
 30
0.0
 11
273.3495208715085
 21
533.5156706444522
 31
0.0
  0
LINE
  5
1F4
330
70
100
AcDbEntity
  8
0
 62
    18
420
        0
370
     9
100
AcDbLine
 10
333.2983836346066
 20
545.1360133758535
 30
0.0
 11
273.3199122642072
 21
545.1360133758535
 31
0.0
  0
SPLINE
  5
1F5
330
70
100
AcDbEntity
  8
0
 62
    18
420
        0
370
     9
100
AcDbSpline
210
0.0
220
0.0
230
1.0
 70
     8
 71
     3
 72
    17
 73
    13
 74
     0
 42
0.0000000001
 43
0.0000000001
 40
0.0
 40
0.0
 40
0.0
 40
0.0
 40
1.0
 40
1.0
 40
1.0
 40
2.0
 40
2.0
 40
2.0
 40
3.0
 40
3.0
 40
3.0
 40
4.0
 40
4.0
 40
4.0
 40
4.0
 10
424.704876849526
 20
529.7775057426916
 30
0.0
 10
424.7192767863998
 20
529.7856897875508
 30
0.0
 10
424.7336767232736
 20
529.7938738324091
 30
0.0
 10
424.7471216415106
 20
529.8034337631698
 30
0.0
 10
424.7611968863639
 20
529.8134418839972
 30
0.0
 10
424.7742254668664
 20
529.8249579238008
 30
0.0
 10
424.7864979599653
 20
529.8372295967565
 30
0.0
 10
424.7987790551997
 20
529.8495098712756
 30
0.0
 10
424.8103030027305
 20
529.8625468386062
 30
0.0
 10
424.8203235958754
 20
529.8766282669539
 30
0.0
 10
424.8298957009756
 20
529.8900794579303
 30
0.0
 10
424.8380960104059
 20
529.904483709015
 30
0.0
 10
424.8462963198362
 20
529.9188879600988
 30
0.0
  0
LINE
  5
1F6
330
70
100
AcDbEntity
  8
0
 62
    18
420
        0
370
     9
100
AcDbLine
 10
424.8462963198071
 20
529.9188879600533
 30
0.0
 11
425.0880006050065
 21
529.6774891487538
 31
0.0
  0
SPLINE
  5
1F7
330
70
100
AcDbEntity
  8
0
 62
    18
420
        0
370
     9
100
AcDbSpline
210
0.0
220
0.0
230
1.0
 70
     8
 71
     3
 72
     8
 73
     4
 74
     0
 42
0.0000000001
 43
0.0000000001
 40
0.0
 40
0.0
 40
0.0
 40
0.0
 40
1.0
 40
1.0
 40
1.0
 40
1.0
 10
424.9465736841175
 20
529.5360473266755
 30
0.0
 10
425.0072460826577
 20
529.5673834561139
 30
0.0
 10
425.0566708680343
 20
529.6168134490308
 30
0.0
 10
425.0880006050083
 20
529.6774891487275
 30
0.0
  0
LINE
  5
1F8
330
70
100
AcDbEntity
  8
0
 62
    18
420
        0
370
     9
100
AcDbLine
 10
424.9465736841066
 20
529.5360473267528
 30
0.0
 11
424.7048768495078
 21
529.7775057426543
 31
0.0
  0
LINE
  5
1F9
330
70
100
AcDbEntity
  8
0
 62
    18
420
        0
370
     9
100
AcDbLine
 10
424.8462963198071
 20
529.9188879600533
 30
0.0
 11
424.8462963198071
 21
545.1360133758535
 31
0.0
  0
LINE
  5
1FA
330
70
100
AcDbEntity
  8
0
 62
    18
420
        0
370
     9
100
AcDbLine
 10
424.7048023437055
 20
529.9188879600533
 30
0.0
 11
424.8462963198071
 21
529.9188879600533
 31
0.0
  0
LINE
  5
1FB
330
70
100
AcDbEntity
  8
0
 62
    18
420
        0
370
     9
100
AcDbLine
 10
424.8462963198071
 20
545.1360133758535
 30
0.0
 11
424.7052717303067
 21
545.1360133758535
 31
0.0
  0
SPLINE
  5
1FC
330
70
100
AcDbEntity
  8
0
 62
    18
420
        0
370
     9
100
AcDbSpline
210
0.0
220
0.0
230
1.0
 70
     8
 71
     3
 72
     8
 73
     4
 74
     0
 42
0.0000000001
 43
0.0000000001
 40
0.0
 40
0.0
 40
0.0
 40
0.0
 40
1.0
 40
1.0
 40
1.0
 40
1.0
 10
248.5322404001881
 20
529.9188879600706
 30
0.0
 10
248.5322327260838
 20
529.8717605448119
 30
0.0
 10
248.5322550778301
 20
529.8246331294413
 30
0.0
 10
248.5323074554126
 20
529.7775057426616
 30
0.0
  0
SPLINE
  5
1FD
330
70
100
AcDbEntity
  8
0
 62
    18
420
        0
370
     9
100
AcDbSpline
210
0.0
220
0.0
230
1.0
 70
     8
 71
     3
 72
     8
 73
     4
 74
     0
 42
0.0000000001
 43
0.0000000001
 40
0.0
 40
0.0
 40
0.0
 40
0.0
 40
1.0
 40
1.0
 40
1.0
 40
1.0
 10
424.7048023437018
 20
529.9188879601261
 30
0.0
 10
424.7048029180587
 20
529.8717605446518
 30
0.0
 10
424.7048277533322
 20
529.8246331325981
 30
0.0
 10
424.7048768495078
 20
529.7775057426916
 30
0.0
  0
LINE
  5
1FE
330
70
100
AcDbEntity
  8
0
 62
    18
420
        0
370
     9
100
AcDbLine
 10
248.532307455408
 20
529.7775057426543
 30
0.0
 11
424.7048768495078
 21
529.7775057426543
 31
0.0
  0
LINE
  5
1FF
330
70
100
AcDbEntity
  8
0
 62
    18
420
        0
370
     9
100
AcDbLine
 10
423.5171946977061
 20
538.1116655937539
 30
0.0
 11
423.5160473083069
 21
530.0360706917517
 31
0.0
  0
LINE
  5
200
330
70
100
AcDbEntity
  8
0
 62
    18
420
        0
370
     9
100
AcDbLine
 10
423.5280054902068
 20
538.1232288948512
 30
0.0
 11
423.5171946977061
 21
538.1116655937539
 31
0.0
  0
SPLINE
  5
201
330
70
100
AcDbEntity
  8
0
 62
    18
420
        0
370
     9
100
AcDbSpline
210
0.0
220
0.0
230
1.0
 70
     8
 71
     3
 72
    20
 73
    16
 74
     0
 42
0.0000000001
 43
0.0000000001
 40
0.0
 40
0.0
 40
0.0
 40
0.0
 40
1.0
 40
1.0
 40
1.0
 40
2.0
 40
2.0
 40
2.0
 40
3.0
 40
3.0
 40
3.0
 40
4.0
 40
4.0
 40
4.0
 40
5.0
 40
5.0
 40
5.0
 40
5.0
 10
423.2672724221884
 20
538.3616474739538
 30
0.0
 10
423.298637612479
 20
538.3581822209407
 30
0.0
 10
423.3300028027697
 20
538.3547169679286
 30
0.0
 10
423.3591976855932
 20
538.3441237083898
 30
0.0
 10
423.389207495591
 20
538.3332347554232
 30
0.0
 10
423.416924145984
 20
538.3148143089292
 30
0.0
 10
423.4401780461012
 20
538.2922080627913
 30
0.0
 10
423.4640796648563
 20
538.2689721378929
 30
0.0
 10
423.4832664582627
 20
538.2413139816263
 30
0.0
 10
423.4966161941229
 20
538.2110265366073
 30
0.0
 10
423.503455186912
 20
538.1955104529743
 30
0.0
 10
423.5087622708651
 20
538.1793043246325
 30
0.0
 10
423.5119345878302
 20
538.1627467743383
 30
0.0
 10
423.515150724419
 20
538.1459605124664
 30
0.0
 10
423.5161727110753
 20
538.1288130531157
 30
0.0
 10
423.5171946977316
 20
538.1116655937658
 30
0.0
  0
LINE
  5
202
330
70
100
AcDbEntity
  8
0
 62
    18
420
        0
370
     9
100
AcDbLine
 10
423.2672724222066
 20
538.3616474739528
 30
0.0
 11
423.278045961706
 21
538.3732107750538
 31
0.0
  0
LINE
  5
203
330
70
100
AcDbEntity
  8
0
 62
    18
420
        0
370
     9
100
AcDbLine
 10
423.1553945039085
 20
538.3616474739528
 30
0.0
 11
423.2672724222066
 21
538.3616474739528
 31
0.0
  0
LINE
  5
204
330
70
100
AcDbEntity
  8
0
 62
    18
420
        0
370
     9
100
AcDbLine
 10
423.1430861448061
 20
538.3732107750538
 30
0.0
 11
423.1553945039085
 21
538.3616474739528
 31
0.0
  0
SPLINE
  5
205
330
70
100
AcDbEntity
  8
0
 62
    18
420
        0
370
     9
100
AcDbSpline
210
0.0
220
0.0
230
1.0
 70
     8
 71
     3
 72
    20
 73
    16
 74
     0
 42
0.0000000001
 43
0.0000000001
 40
0.0
 40
0.0
 40
0.0
 40
0.0
 40
1.0
 40
1.0
 40
1.0
 40
2.0
 40
2.0
 40
2.0
 40
3.0
 40
3.0
 40
3.0
 40
4.0
 40
4.0
 40
4.0
 40
5.0
 40
5.0
 40
5.0
 40
5.0
 10
422.9054722284018
 20
538.1116655937658
 30
0.0
 10
422.9064972813575
 20
538.1288130242165
 30
0.0
 10
422.9075223343097
 20
538.1459604546653
 30
0.0
 10
422.9107397888838
 20
538.1627467743383
 30
0.0
 10
422.9139133586777
 20
538.1793041353948
 30
0.0
 10
422.9192199310164
 20
538.1955101693056
 30
0.0
 10
422.9260581825911
 20
538.2110265366073
 30
0.0
 10
422.9394058974521
 20
538.2413132325782
 30
0.0
 10
422.9585892929589
 20
538.2689723065268
 30
0.0
 10
422.9824888800322
 20
538.2922080627913
 30
0.0
 10
423.005741803694
 20
538.3148151172563
 30
0.0
 10
423.0334591548525
 20
538.3332349836428
 30
0.0
 10
423.0634692405401
 20
538.3441237083898
 30
0.0
 10
423.0926643915664
 20
538.3547167459064
 30
0.0
 10
423.1240294477556
 20
538.3581821099296
 30
0.0
 10
423.155394503945
 20
538.3616474739538
 30
0.0
  0
LINE
  5
206
330
70
100
AcDbEntity
  8
0
 62
    18
420
        0
370
     9
100
AcDbLine
 10
417.9172340129079
 20
538.1116655937539
 30
0.0
 11
417.9161685799081
 21
530.6283024422518
 31
0.0
  0
LINE
  5
207
330
70
100
AcDbEntity
  8
0
 62
    18
420
        0
370
     9
100
AcDbLine
 10
417.9172340129079
 20
538.1116655937539
 30
0.0
 11
417.9280373548063
 21
538.1232288948512
 31
0.0
  0
SPLINE
  5
208
330
70
100
AcDbEntity
  8
0
 62
    18
420
        0
370
     9
100
AcDbSpline
210
0.0
220
0.0
230
1.0
 70
     8
 71
     3
 72
    20
 73
    16
 74
     0
 42
0.0000000001
 43
0.0000000001
 40
0.0
 40
0.0
 40
0.0
 40
0.0
 40
1.0
 40
1.0
 40
1.0
 40
2.0
 40
2.0
 40
2.0
 40
3.0
 40
3.0
 40
3.0
 40
4.0
 40
4.0
 40
4.0
 40
5.0
 40
5.0
 40
5.0
 40
5.0
 10
417.6673042868315
 20
538.3616474739538
 30
0.0
 10
417.6986719327905
 20
538.358182504121
 30
0.0
 10
417.7300395787496
 20
538.3547175342855
 30
0.0
 10
417.7592370008169
 20
538.3441237083898
 30
0.0
 10
417.789247073897
 20
538.333235024841
 30
0.0
 10
417.8169644343142
 20
538.3148151282012
 30
0.0
 10
417.8402173613249
 20
538.2922080627913
 30
0.0
 10
417.8641169518414
 20
538.2689722952764
 30
0.0
 10
417.8833003445488
 20
538.2413132304718
 30
0.0
 10
417.896648058766
 20
538.2110265366073
 30
0.0
 10
417.9034863100095
 20
538.1955101703843
 30
0.0
 10
417.9087928825847
 20
538.179304135705
 30
0.0
 10
417.9119664524733
 20
538.1627467743383
 30
0.0
 10
417.9151839071437
 20
538.1459604543506
 30
0.0
 10
417.9162089600504
 20
538.1288130240582
 30
0.0
 10
417.9172340129553
 20
538.1116655937658
 30
0.0
  0
LINE
  5
209
330
70
100
AcDbEntity
  8
0
 62
    18
420
        0
370
     9
100
AcDbLine
 10
417.667304286806
 20
538.3616474739528
 30
0.0
 11
417.6780778264055
 21
538.3732107750538
 31
0.0
  0
LINE
  5
20A
330
70
100
AcDbEntity
  8
0
 62
    18
420
        0
370
     9
100
AcDbLine
 10
417.5554263686063
 20
538.3616474739528
 30
0.0
 11
417.667304286806
 21
538.3616474739528
 31
0.0
  0
LINE
  5
20B
330
70
100
AcDbEntity
  8
0
 62
    18
420
        0
370
     9
100
AcDbLine
 10
417.5431180094055
 20
538.3732107750538
 30
0.0
 11
417.5554263686063
 21
538.3616474739528
 31
0.0
  0
SPLINE
  5
20C
330
70
100
AcDbEntity
  8
0
 62
    18
420
        0
370
     9
100
AcDbSpline
210
0.0
220
0.0
230
1.0
 70
     8
 71
     3
 72
    20
 73
    16
 74
     0
 42
0.0000000001
 43
0.0000000001
 40
0.0
 40
0.0
 40
0.0
 40
0.0
 40
1.0
 40
1.0
 40
1.0
 40
2.0
 40
2.0
 40
2.0
 40
3.0
 40
3.0
 40
3.0
 40
4.0
 40
4.0
 40
4.0
 40
5.0
 40
5.0
 40
5.0
 40
5.0
 10
417.3055115436254
 20
538.1116655937658
 30
0.0
 10
417.306533480536
 20
538.1288130884086
 30
0.0
 10
417.3075554174465
 20
538.1459605830514
 30
0.0
 10
417.3107716535269
 20
538.1627467743383
 30
0.0
 10
417.3139440686282
 20
538.1793042550079
 30
0.0
 10
417.3192513959147
 20
538.1955102107158
 30
0.0
 10
417.3260900472341
 20
538.2110265366073
 30
0.0
 10
417.3394385423653
 20
538.2413131517523
 30
0.0
 10
417.3586213648231
 20
538.2689722850618
 30
0.0
 10
417.3825207446753
 20
538.2922080627913
 30
0.0
 10
417.4057734667258
 20
538.3148151381392
 30
0.0
 10
417.4334909625758
 20
538.3332349895399
 30
0.0
 10
417.4635011051832
 20
538.3441237083898
 30
0.0
 10
417.4926963115868
 20
538.3547167401693
 30
0.0
 10
417.5240613400892
 20
538.3581821070611
 30
0.0
 10
417.5554263685881
 20
538.3616474739538
 30
0.0
  0
LINE
  5
20D
330
70
100
AcDbEntity
  8
0
 62
    18
420
        0
370
     9
100
AcDbLine
 10
417.3055115436072
 20
538.1116655937539
 30
0.0
 11
417.2931584810067
 21
538.1232288948512
 31
0.0
  0
LINE
  5
20E
330
70
100
AcDbEntity
  8
0
 62
    18
420
        0
370
     9
100
AcDbLine
 10
417.3068228458069
 20
530.0360706917517
 30
0.0
 11
417.3055115436072
 21
538.1116655937539
 31
0.0
  0
LINE
  5
20F
330
70
100
AcDbEntity
  8
0
 62
    18
420
        0
370
     9
100
AcDbLine
 10
414.5174595808075
 20
543.0224326721527
 30
0.0
 11
414.5288589691081
 21
543.0346516243544
 31
0.0
  0
LINE
  5
210
330
70
100
AcDbEntity
  8
0
 62
    18
420
        0
370
     9
100
AcDbLine
 10
414.5288589691081
 20
538.303473340653
 30
0.0
 11
414.5136374329085
 21
538.3198050133533
 31
0.0
  0
LINE
  5
211
330
70
100
AcDbEntity
  8
0
 62
    18
420
        0
370
     9
100
AcDbLine
 10
414.5136374329085
 20
538.3198050133533
 30
0.0
 11
414.514307985206
 21
543.0224326721527
 31
0.0
  0
LINE
  5
212
330
70
100
AcDbEntity
  8
0
 62
    18
420
        0
370
     9
100
AcDbLine
 10
414.5174595808075
 20
543.0224326721527
 30
0.0
 11
411.0174599384081
 21
543.0224326721527
 31
0.0
  0
LINE
  5
213
330
70
100
AcDbEntity
  8
0
 62
    18
420
        0
370
     9
100
AcDbLine
 10
411.0174599384081
 20
543.0224326721527
 30
0.0
 11
411.0044288729059
 21
543.0346516243544
 31
0.0
  0
LINE
  5
214
330
70
100
AcDbEntity
  8
0
 62
    18
420
        0
370
     9
100
AcDbLine
 10
411.0218185280063
 20
538.3198050133533
 30
0.0
 11
411.0044288729059
 21
538.303473340653
 31
0.0
  0
LINE
  5
215
330
70
100
AcDbEntity
  8
0
 62
    18
420
        0
370
     9
100
AcDbLine
 10
411.0218185280063
 20
538.3198050133533
 30
0.0
 11
411.2677323912066
 21
538.3198050133533
 31
0.0
  0
LINE
  5
216
330
70
100
AcDbEntity
  8
0
 62
    18
420
        0
370
     9
100
AcDbLine
 10
414.2677310203071
 20
538.3198050133533
 30
0.0
 11
414.5136374329085
 21
538.3198050133533
 31
0.0
  0
LINE
  5
217
330
70
100
AcDbEntity
  8
0
 62
    18
420
        0
370
     9
100
AcDbLine
 10
411.0210585688055
 20
543.0224326721527
 30
0.0
 11
411.0218185280063
 21
538.3198050133533
 31
0.0
  0
LINE
  5
218
330
70
100
AcDbEntity
  8
0
 62
    18
420
        0
370
     9
100
AcDbLine
 10
425.2295839881062
 20
545.1360133758535
 30
0.0
 11
425.1623797511056
 21
529.7517565361522
 31
0.0
  0
LINE
  5
219
330
70
100
AcDbEntity
  8
0
 62
    18
420
        0
370
     9
100
AcDbLine
 10
425.0880006050065
 20
529.6774891487538
 30
0.0
 11
425.1623797511056
 21
529.7517565361522
 31
0.0
  0
LINE
  5
21A
330
70
100
AcDbEntity
  8
0
 62
    18
420
        0
370
     9
100
AcDbLine
 10
425.2295839881062
 20
545.1360133758535
 30
0.0
 11
424.8462963198071
 21
545.1360133758535
 31
0.0
  0
LINE
  5
21B
330
70
100
AcDbEntity
  8
0
 62
    18
420
        0
370
     9
100
AcDbLine
 10
248.532307455408
 20
529.7775057426543
 30
0.0
 11
248.2911619638071
 21
529.5360473267528
 31
0.0
  0
LINE
  5
21C
330
70
100
AcDbEntity
  8
0
 62
    18
420
        0
370
     9
100
AcDbLine
 10
424.7054356431071
 20
529.2946485153533
 30
0.0
 11
424.9465736841066
 21
529.5360473267528
 31
0.0
  0
LINE
  5
21D
330
70
100
AcDbEntity
  8
0
 62
    18
420
        0
370
     9
100
AcDbLine
 10
248.5328662490083
 20
529.2946485153533
 30
0.0
 11
424.7054356431071
 21
529.2946485153533
 31
0.0
  0
LINE
  5
21E
330
70
100
AcDbEntity
  8
0
 62
    18
420
        0
370
     9
100
AcDbLine
 10
248.2911619638071
 20
529.5360473267528
 30
0.0
 11
248.5328662490083
 21
529.2946485153533
 31
0.0
  0
LINE
  5
21F
330
70
100
AcDbEntity
  8
0
 62
    18
420
        0
370
     9
100
AcDbLine
 10
353.2391238307064
 20
534.5860508552532
 30
0.0
 11
353.2472598647055
 21
534.5860508552532
 31
0.0
  0
SPLINE
  5
220
330
70
100
AcDbEntity
  8
0
 62
    18
420
        0
370
     9
100
AcDbSpline
210
0.0
220
0.0
230
1.0
 70
     8
 71
     3
 72
    11
 73
     7
 74
     0
 42
0.0000000001
 43
0.0000000001
 40
0.0
 40
0.0
 40
0.0
 40
0.0
 40
1.0
 40
1.0
 40
1.0
 40
2.0
 40
2.0
 40
2.0
 40
2.0
 10
353.2472598646837
 20
534.5863488785253
 30
0.0
 10
353.0845734429058
 20
534.7117471381161
 30
0.0
 10
352.9218870211298
 20
534.8371453977042
 30
0.0
 10
352.7383386437832
 20
534.9099424950118
 30
0.0
 10
352.5547844479443
 20
534.9827418999893
 30
0.0
 10
352.3503669738639
 20
535.0029368077148
 30
0.0
 10
352.1459494997817
 20
535.0231317154394
 30
0.0
  0
SPLINE
  5
221
330
70
100
AcDbEntity
  8
0
 62
    18
420
        0
370
     9
100
AcDbSpline
210
0.0
220
0.0
230
1.0
 70
     8
 71
     3
 72
    11
 73
     7
 74
     0
 42
0.0000000001
 43
0.0000000001
 40
0.0
 40
0.0
 40
0.0
 40
0.0
 40
1.0
 40
1.0
 40
1.0
 40
2.0
 40
2.0
 40
2.0
 40
2.0
 10
352.1459494997817
 20
535.0231317154394
 30
0.0
 10
351.9414693657564
 20
535.0029306747719
 30
0.0
 10
351.7369892317329
 20
534.9827296341036
 30
0.0
 10
351.5533983056503
 20
534.9098828903652
 30
0.0
 10
351.3698072094121
 20
534.8370360791141
 30
0.0
 10
351.2071053598411
 20
534.7115434672087
 30
0.0
 10
351.0444035102683
 20
534.5860508553005
 30
0.0
  0
LINE
  5
222
330
70
100
AcDbEntity
  8
0
 62
    18
420
        0
370
     9
100
AcDbLine
 10
351.0444035103065
 20
534.5860508552532
 30
0.0
 11
351.0531728436072
 21
534.5860508552532
 31
0.0
  0
SPLINE
  5
223
330
70
100
AcDbEntity
  8
0
 62
    18
420
        0
370
     9
100
AcDbSpline
210
0.0
220
0.0
230
1.0
 70
     8
 71
     3
 72
    29
 73
    25
 74
     0
 42
0.0000000001
 43
0.0000000001
 40
0.0
 40
0.0
 40
0.0
 40
0.0
 40
1.0
 40
1.0
 40
1.0
 40
2.0
 40
2.0
 40
2.0
 40
3.0
 40
3.0
 40
3.0
 40
4.0
 40
4.0
 40
4.0
 40
5.0
 40
5.0
 40
5.0
 40
6.0
 40
6.0
 40
6.0
 40
7.0
 40
7.0
 40
7.0
 40
8.0
 40
8.0
 40
8.0
 40
8.0
 10
351.053172843629
 20
534.5860508553005
 30
0.0
 10
350.9484203369866
 20
534.4700335604239
 30
0.0
 10
350.843667830346
 20
534.3540162655435
 30
0.0
 10
350.7628013660251
 20
534.2220452896571
 30
0.0
 10
350.6781814002989
 20
534.0839487430785
 30
0.0
 10
350.6197163293637
 20
533.9283831305611
 30
0.0
 10
350.5845508818584
 20
533.7685731522078
 30
0.0
 10
350.5493864604759
 20
533.6087678371022
 30
0.0
 10
350.5375203027834
 20
533.4447184038599
 30
0.0
 10
350.5509860162693
 20
533.2824972740645
 30
0.0
 10
350.5638554021025
 20
533.1274600892839
 30
0.0
 10
350.5998627004629
 20
532.9740928610909
 30
0.0
 10
350.6570655201613
 20
532.8290847412572
 30
0.0
 10
350.714275655595
 20
532.6840580761763
 30
0.0
 10
350.7926867341557
 20
532.5473926577005
 30
0.0
 10
350.8891594876586
 20
532.4253228775488
 30
0.0
 10
350.9900864958581
 20
532.2976169994162
 30
0.0
 10
351.1107815377564
 20
532.1858856680019
 30
0.0
 10
351.2455868815123
 20
532.0931461922155
 30
0.0
 10
351.3804050574581
 20
532.0003978885133
 30
0.0
 10
351.529336221729
 20
531.9266450563
 30
0.0
 10
351.6854533274709
 20
531.8835166565413
 30
0.0
 10
351.8346526361093
 20
531.8422993447284
 30
0.0
 10
351.9904151549599
 20
531.8290525624015
 30
0.0
 10
352.1461776738106
 20
531.8158057800765
 30
0.0
  0
SPLINE
  5
224
330
70
100
AcDbEntity
  8
0
 62
    18
420
        0
370
     9
100
AcDbSpline
210
0.0
220
0.0
230
1.0
 70
     8
 71
     3
 72
    29
 73
    25
 74
     0
 42
0.0000000001
 43
0.0000000001
 40
0.0
 40
0.0
 40
0.0
 40
0.0
 40
1.0
 40
1.0
 40
1.0
 40
2.0
 40
2.0
 40
2.0
 40
3.0
 40
3.0
 40
3.0
 40
4.0
 40
4.0
 40
4.0
 40
5.0
 40
5.0
 40
5.0
 40
6.0
 40
6.0
 40
6.0
 40
7.0
 40
7.0
 40
7.0
 40
8.0
 40
8.0
 40
8.0
 40
8.0
 10
352.1461776738106
 20
531.8158057800765
 30
0.0
 10
352.3019395642986
 20
531.8290533857907
 30
0.0
 10
352.4577014547831
 20
531.8423009915068
 30
0.0
 10
352.6069029514747
 20
531.8835166565413
 30
0.0
 10
352.7630212297045
 20
531.926643024598
 30
0.0
 10
352.9119567528942
 20
532.0003906823804
 30
0.0
 10
353.0467666034638
 20
532.0931461922155
 30
0.0
 10
353.1815742446088
 20
532.1859001818593
 30
0.0
 10
353.3022566761502
 20
532.2976614005137
 30
0.0
 10
353.4031874780594
 20
532.4253824821925
 30
0.0
 10
353.4996449938644
 20
532.5474429238193
 30
0.0
 10
353.5780628794346
 20
532.6840798856055
 30
0.0
 10
353.6352712010103
 20
532.8290847412572
 30
0.0
 10
353.6924789212899
 20
532.9740880728222
 30
0.0
 10
353.7284775234257
 20
533.1274591223509
 30
0.0
 10
353.7413413916784
 20
533.2824972740645
 30
0.0
 10
353.7548014145086
 20
533.4447204110574
 30
0.0
 10
353.7429327353511
 20
533.6087687488316
 30
0.0
 10
353.7077653502165
 20
533.7685731522078
 30
0.0
 10
353.6725967239363
 20
533.9283831954799
 30
0.0
 10
353.614127747107
 20
534.0839490047856
 30
0.0
 10
353.5295046214997
 20
534.2220452896571
 30
0.0
 10
353.44863475083
 20
534.3540166463935
 30
0.0
 10
353.3438792907509
 20
534.4700337508483
 30
0.0
 10
353.23912383067
 20
534.5860508553005
 30
0.0
  0
LINE
  5
225
330
70
100
AcDbEntity
  8
0
 62
    18
420
        0
370
     9
100
AcDbLine
 10
350.4149039556087
 20
545.4247382751518
 30
0.0
 11
350.4156005849091
 21
545.4247382751518
 31
0.0
  0
LINE
  5
226
330
70
100
AcDbEntity
  8
0
 62
    18
420
        0
370
     9
100
AcDbLine
 10
350.1370624919073
 20
546.0205463043539
 30
0.0
 11
350.1377535333086
 21
546.0205463043539
 31
0.0
  0
LINE
  5
227
330
70
100
AcDbEntity
  8
0
 62
    18
420
        0
370
     9
100
AcDbLine
 10
350.1377535333086
 20
546.0205463043539
 30
0.0
 11
350.4156005849091
 21
545.4247382751518
 31
0.0
  0
LINE
  5
228
330
70
100
AcDbEntity
  8
0
 62
    18
420
        0
370
     9
100
AcDbLine
 10
348.2843275462055
 20
542.1361712089537
 30
0.0
 11
348.2945618500089
 21
542.1351579300535
 31
0.0
  0
LINE
  5
229
330
70
100
AcDbEntity
  8
0
 62
    18
420
        0
370
     9
100
AcDbLine
 10
348.083948837706
 20
541.935661183953
 30
0.0
 11
348.0832168181077
 21
541.9246939293525
 31
0.0
  0
SPLINE
  5
22A
330
70
100
AcDbEntity
  8
0
 62
    18
420
        0
370
     9
100
AcDbSpline
210
0.0
220
0.0
230
1.0
 70
     8
 71
     3
 72
    17
 73
    13
 74
     0
 42
0.0000000001
 43
0.0000000001
 40
0.0
 40
0.0
 40
0.0
 40
0.0
 40
1.0
 40
1.0
 40
1.0
 40
2.0
 40
2.0
 40
2.0
 40
3.0
 40
3.0
 40
3.0
 40
4.0
 40
4.0
 40
4.0
 40
4.0
 10
348.0839488376933
 20
541.9356611839758
 30
0.0
 10
348.110214056529
 20
541.9386748234883
 30
0.0
 10
348.1364792753666
 20
541.9416884630018
 30
0.0
 10
348.1606562902271
 20
541.9509199730383
 30
0.0
 10
348.1848319528508
 20
541.96015096675
 30
0.0
 10
348.2069196450775
 20
541.975599135465
 30
0.0
 10
348.225680301066
 20
541.9943717590795
 30
0.0
 10
348.2444509235884
 20
542.013154355588
 30
0.0
 10
348.2598909739754
 20
542.0352649401483
 30
0.0
 10
348.2691106666862
 20
542.0594600311751
 30
0.0
 10
348.2783254478964
 20
542.0836422330194
 30
0.0
 10
348.2813264970646
 20
542.1099067210097
 30
0.0
 10
348.2843275462347
 20
542.1361712090011
 30
0.0
  0
LINE
  5
22B
330
70
100
AcDbEntity
  8
0
 62
    18
420
        0
370
     9
100
AcDbLine
 10
348.2844765578084
 20
543.1815770737521
 30
0.0
 11
348.2945618500089
 21
543.2351020447522
 31
0.0
  0
LINE
  5
22C
330
70
100
AcDbEntity
  8
0
 62
    18
420
        0
370
     9
100
AcDbLine
 10
348.284334996808
 20
542.1361712089537
 30
0.0
 11
348.2844756265076
 21
543.1815770737521
 31
0.0
  0
SPLINE
  5
22D
330
70
100
AcDbEntity
  8
0
 62
    18
420
        0
370
     9
100
AcDbSpline
210
0.0
220
0.0
230
1.0
 70
     8
 71
     3
 72
    17
 73
    13
 74
     0
 42
0.0000000001
 43
0.0000000001
 40
0.0
 40
0.0
 40
0.0
 40
0.0
 40
1.0
 40
1.0
 40
1.0
 40
2.0
 40
2.0
 40
2.0
 40
3.0
 40
3.0
 40
3.0
 40
4.0
 40
4.0
 40
4.0
 40
4.0
 10
348.2844756265222
 20
543.1815770737166
 30
0.0
 10
348.2784459181639
 20
543.2339967978378
 30
0.0
 10
348.2724162098039
 20
543.2864165219589
 30
0.0
 10
348.2540409361082
 20
543.3347014061427
 30
0.0
 10
348.2356732620756
 20
543.3829663206188
 30
0.0
 10
348.2049702323784
 20
543.4270998146339
 30
0.0
 10
348.1676160638272
 20
543.4646395317541
 30
0.0
 10
348.1302703776237
 20
543.502170724395
 30
0.0
 10
348.0862765728889
 20
543.5331111344176
 30
0.0
 10
348.0380802695709
 20
543.5516027084823
 30
0.0
 10
347.9898828418336
 20
543.5700947139548
 30
0.0
 10
347.9374827194224
 20
543.5761373026044
 30
0.0
 10
347.8850825970112
 20
543.582179891252
 30
0.0
  0
LINE
  5
22E
330
70
100
AcDbEntity
  8
0
 62
    18
420
        0
370
     9
100
AcDbLine
 10
347.8951110785056
 20
543.6360028854514
 30
0.0
 11
347.8850825970076
 21
543.5821798912538
 31
0.0
  0
LINE
  5
22F
330
70
100
AcDbEntity
  8
0
 62
    18
420
        0
370
     9
100
AcDbLine
 10
345.0839511399063
 20
541.935661183953
 30
0.0
 11
345.0832172577066
 21
541.9246939293525
 31
0.0
  0
LINE
  5
230
330
70
100
AcDbEntity
  8
0
 62
    18
420
        0
370
     9
100
AcDbLine
 10
345.0839511399063
 20
541.935661183953
 30
0.0
 11
348.083948837706
 21
541.935661183953
 31
0.0
  0
LINE
  5
231
330
70
100
AcDbEntity
  8
0
 62
    18
420
        0
370
     9
100
AcDbLine
 10
345.2827847843073
 20
543.5821798912538
 30
0.0
 11
345.2713248600085
 21
543.6360028854514
 31
0.0
  0
LINE
  5
232
330
70
100
AcDbEntity
  8
0
 62
    18
420
        0
370
     9
100
AcDbLine
 10
347.8850825970076
 20
543.5821798912538
 30
0.0
 11
345.2827847843073
 21
543.5821798912538
 31
0.0
  0
SPLINE
  5
233
330
70
100
AcDbEntity
  8
0
 62
    18
420
        0
370
     9
100
AcDbSpline
210
0.0
220
0.0
230
1.0
 70
     8
 71
     3
 72
    17
 73
    13
 74
     0
 42
0.0000000001
 43
0.0000000001
 40
0.0
 40
0.0
 40
0.0
 40
0.0
 40
1.0
 40
1.0
 40
1.0
 40
2.0
 40
2.0
 40
2.0
 40
3.0
 40
3.0
 40
3.0
 40
4.0
 40
4.0
 40
4.0
 40
4.0
 10
349.9564911519247
 20
546.1360005012966
 30
0.0
 10
349.9754113458621
 20
546.1344472016326
 30
0.0
 10
349.9943315398032
 20
546.1328939019685
 30
0.0
 10
350.0124571193992
 20
546.1280134788967
 30
0.0
 10
350.0305794752458
 20
546.1231339238411
 30
0.0
 10
350.0479074993782
 20
546.1149284287703
 30
0.0
 10
350.0639518071967
 20
546.1047080627913
 30
0.0
 10
350.0800039188762
 20
546.0944827256826
 30
0.0
 10
350.0947710651581
 20
546.0822405571443
 30
0.0
 10
350.1068597008525
 20
546.0678723923193
 30
0.0
 10
350.1189412156018
 20
546.0535126912282
 30
0.0
 10
350.1283473744479
 20
546.0370294977992
 30
0.0
 10
350.1377535332977
 20
546.0205463043685
 30
0.0
  0
LINE
  5
234
330
70
100
AcDbEntity
  8
0
 62
    18
420
        0
370
     9
100
AcDbLine
 10
349.9564911519083
 20
546.1360005012521
 30
0.0
 11
349.9558010419059
 21
546.1360005012521
 31
0.0
  0
SPLINE
  5
235
330
70
100
AcDbEntity
  8
0
 62
    18
420
        0
370
     9
100
AcDbSpline
210
0.0
220
0.0
230
1.0
 70
     8
 71
     3
 72
    17
 73
    13
 74
     0
 42
0.0000000001
 43
0.0000000001
 40
0.0
 40
0.0
 40
0.0
 40
0.0
 40
1.0
 40
1.0
 40
1.0
 40
2.0
 40
2.0
 40
2.0
 40
3.0
 40
3.0
 40
3.0
 40
4.0
 40
4.0
 40
4.0
 40
4.0
 10
345.2827847843128
 20
543.582179891252
 30
0.0
 10
345.2303494029293
 20
543.576122086154
 30
0.0
 10
345.177914021544
 20
543.5700642810607
 30
0.0
 10
345.1296911855298
 20
543.5515431038366
 30
0.0
 10
345.08146895145
 20
543.5330221578051
 30
0.0
 10
345.0374591575746
 20
543.5020381507865
 30
0.0
 10
345.0001060311752
 20
543.4644607178197
 30
0.0
 10
344.9627503271513
 20
543.4268806917526
 30
0.0
 10
344.932052209344
 20
543.3827063297176
 30
0.0
 10
344.9137109612184
 20
543.3344033829207
 30
0.0
 10
344.8953609039782
 20
543.2860772367157
 30
0.0
 10
344.8893795890181
 20
543.2336185389567
 30
0.0
 10
344.883398274058
 20
543.1811598412023
 30
0.0
  0
LINE
  5
236
330
70
100
AcDbEntity
  8
0
 62
    18
420
        0
370
     9
100
AcDbLine
 10
344.8833982741089
 20
543.1811598411541
 30
0.0
 11
344.8718731572062
 21
543.2351020447522
 31
0.0
  0
LINE
  5
237
330
70
100
AcDbEntity
  8
0
 62
    18
420
        0
370
     9
100
AcDbLine
 10
344.8835677748066
 20
542.1361712089537
 30
0.0
 11
344.8718731572062
 21
542.1360519997533
 31
0.0
  0
SPLINE
  5
238
330
70
100
AcDbEntity
  8
0
 62
    18
420
        0
370
     9
100
AcDbSpline
210
0.0
220
0.0
230
1.0
 70
     8
 71
     3
 72
    17
 73
    13
 74
     0
 42
0.0000000001
 43
0.0000000001
 40
0.0
 40
0.0
 40
0.0
 40
0.0
 40
1.0
 40
1.0
 40
1.0
 40
2.0
 40
2.0
 40
2.0
 40
3.0
 40
3.0
 40
3.0
 40
4.0
 40
4.0
 40
4.0
 40
4.0
 10
344.8835677747684
 20
542.1361712090011
 30
0.0
 10
344.8865695321947
 20
542.1099067129898
 30
0.0
 10
344.8895712896247
 20
542.0836422169768
 30
0.0
 10
344.8987865169602
 20
542.0594600311751
 30
0.0
 10
344.9080066742172
 20
542.0352649084953
 30
0.0
 10
344.9234469512703
 20
542.0131543245934
 30
0.0
 10
344.942217813903
 20
541.9943717590795
 30
0.0
 10
344.9609787716909
 20
541.9755991045867
 30
0.0
 10
344.98306680108
 20
541.9601509572121
 30
0.0
 10
345.0072427560626
 20
541.9509199730383
 30
0.0
 10
345.0314201062829
 20
541.9416884561305
 30
0.0
 10
345.0576856231037
 20
541.9386748200522
 30
0.0
 10
345.0839511399227
 20
541.9356611839758
 30
0.0
  0
LINE
  5
239
330
70
100
AcDbEntity
  8
0
 62
    18
420
        0
370
     9
100
AcDbLine
 10
344.8833982741089
 20
543.1811598411541
 30
0.0
 11
344.8835677748066
 21
542.1361712089537
 31
0.0
  0
LINE
  5
23A
330
70
100
AcDbEntity
  8
0
 62
    18
420
        0
370
     9
100
AcDbLine
 10
339.2945664284089
 20
542.1351579300535
 30
0.0
 11
339.2843339873089
 21
542.1361712089537
 31
0.0
  0
LINE
  5
23B
330
70
100
AcDbEntity
  8
0
 62
    18
420
        0
370
     9
100
AcDbLine
 10
339.0839545802082
 20
541.935661183953
 30
0.0
 11
339.0832220950088
 21
541.9246939293525
 31
0.0
  0
SPLINE
  5
23C
330
70
100
AcDbEntity
  8
0
 62
    18
420
        0
370
     9
100
AcDbSpline
210
0.0
220
0.0
230
1.0
 70
     8
 71
     3
 72
    17
 73
    13
 74
     0
 42
0.0000000001
 43
0.0000000001
 40
0.0
 40
0.0
 40
0.0
 40
0.0
 40
1.0
 40
1.0
 40
1.0
 40
2.0
 40
2.0
 40
2.0
 40
3.0
 40
3.0
 40
3.0
 40
4.0
 40
4.0
 40
4.0
 40
4.0
 10
339.0839550458877
 20
541.9356611839758
 30
0.0
 10
339.1102202633501
 20
541.9386748237693
 30
0.0
 10
339.1364854808089
 20
541.9416884635593
 30
0.0
 10
339.1606624984252
 20
541.9509199730383
 30
0.0
 10
339.1848381637974
 20
541.9601509661915
 30
0.0
 10
339.206925862909
 20
541.9755991335132
 30
0.0
 10
339.2256865092623
 20
541.9943717590795
 30
0.0
 10
339.244457122144
 20
542.0131543575426
 30
0.0
 10
339.2598971463613
 20
542.0352649474071
 30
0.0
 10
339.2691168748825
 20
542.0594600311751
 30
0.0
 10
339.27833169722
 20
542.083642239776
 30
0.0
 10
339.2813328422417
 20
542.1099067243885
 30
0.0
 10
339.2843339872616
 20
542.1361712090011
 30
0.0
  0
LINE
  5
23D
330
70
100
AcDbEntity
  8
0
 62
    18
420
        0
370
     9
100
AcDbLine
 10
339.2844825332068
 20
543.1815770737521
 30
0.0
 11
339.2945682910067
 21
543.2351020447522
 31
0.0
  0
LINE
  5
23E
330
70
100
AcDbEntity
  8
0
 62
    18
420
        0
370
     9
100
AcDbLine
 10
339.2843339873089
 20
542.1361712089537
 30
0.0
 11
339.2844825332068
 21
543.1815770737521
 31
0.0
  0
SPLINE
  5
23F
330
70
100
AcDbEntity
  8
0
 62
    18
420
        0
370
     9
100
AcDbSpline
210
0.0
220
0.0
230
1.0
 70
     8
 71
     3
 72
    17
 73
    13
 74
     0
 42
0.0000000001
 43
0.0000000001
 40
0.0
 40
0.0
 40
0.0
 40
0.0
 40
1.0
 40
1.0
 40
1.0
 40
2.0
 40
2.0
 40
2.0
 40
3.0
 40
3.0
 40
3.0
 40
4.0
 40
4.0
 40
4.0
 40
4.0
 10
339.2844825332104
 20
543.1815770737166
 30
0.0
 10
339.2784524725394
 20
543.2339968044825
 30
0.0
 10
339.2724224118647
 20
543.2864165352521
 30
0.0
 10
339.254046911472
 20
543.3347014061427
 30
0.0
 10
339.2356790018457
 20
543.3829663309597
 30
0.0
 10
339.2049758499852
 20
543.4270998113507
 30
0.0
 10
339.1676215735315
 20
543.4646395317541
 30
0.0
 10
339.1302757948979
 20
543.502170712155
 30
0.0
 10
339.0862819174836
 20
543.5331111322893
 30
0.0
 10
339.0380855464446
 20
543.5516027084823
 30
0.0
 10
338.9898879696411
 20
543.5700947472923
 30
0.0
 10
338.9374876889342
 20
543.5761373192717
 30
0.0
 10
338.8850874082255
 20
543.582179891252
 30
0.0
  0
LINE
  5
240
330
70
100
AcDbEntity
  8
0
 62
    18
420
        0
370
     9
100
AcDbLine
 10
338.8850874082073
 20
543.5821798912538
 30
0.0
 11
338.8951161225068
 21
543.6360028854514
 31
0.0
  0
LINE
  5
241
330
70
100
AcDbEntity
  8
0
 62
    18
420
        0
370
     9
100
AcDbLine
 10
336.0839569989057
 20
541.935661183953
 30
0.0
 11
336.0832231749082
 21
541.9246939293525
 31
0.0
  0
LINE
  5
242
330
70
100
AcDbEntity
  8
0
 62
    18
420
        0
370
     9
100
AcDbLine
 10
336.0839569989057
 20
541.935661183953
 30
0.0
 11
339.0839545802082
 21
541.935661183953
 31
0.0
  0
LINE
  5
243
330
70
100
AcDbEntity
  8
0
 62
    18
420
        0
370
     9
100
AcDbLine
 10
336.2827904977057
 20
543.5821798912538
 30
0.0
 11
336.2713310973086
 21
543.6360028854514
 31
0.0
  0
LINE
  5
244
330
70
100
AcDbEntity
  8
0
 62
    18
420
        0
370
     9
100
AcDbLine
 10
338.8850874082073
 20
543.5821798912538
 30
0.0
 11
336.2827904977057
 21
543.5821798912538
 31
0.0
  0
SPLINE
  5
245
330
70
100
AcDbEntity
  8
0
 62
    18
420
        0
370
     9
100
AcDbSpline
210
0.0
220
0.0
230
1.0
 70
     8
 71
     3
 72
    17
 73
    13
 74
     0
 42
0.0000000001
 43
0.0000000001
 40
0.0
 40
0.0
 40
0.0
 40
0.0
 40
1.0
 40
1.0
 40
1.0
 40
2.0
 40
2.0
 40
2.0
 40
3.0
 40
3.0
 40
3.0
 40
4.0
 40
4.0
 40
4.0
 40
4.0
 10
336.2827904977421
 20
543.582179891252
 30
0.0
 10
336.2303903539287
 20
543.5761373776358
 30
0.0
 10
336.1779902101116
 20
543.5700948640187
 30
0.0
 10
336.1297928542881
 20
543.5516027084823
 30
0.0
 10
336.0815970469994
 20
543.5331111470778
 30
0.0
 10
336.0376037576425
 20
543.5021707437336
 30
0.0
 10
336.0002587480522
 20
543.4646395317541
 30
0.0
 10
335.9629052293712
 20
543.4270997682561
 30
0.0
 10
335.9322030204312
 20
543.38296619234
 30
0.0
 10
335.9138362040813
 20
543.3347014061427
 30
0.0
 10
335.8954616966912
 20
543.2864164092452
 30
0.0
 10
335.8894329148498
 20
543.2339967414809
 30
0.0
 10
335.8834041330083
 20
543.1815770737166
 30
0.0
  0
LINE
  5
246
330
70
100
AcDbEntity
  8
0
 62
    18
420
        0
370
     9
100
AcDbLine
 10
335.883404598706
 20
543.1815770737521
 30
0.0
 11
335.871878957907
 21
543.2351020447522
 31
0.0
  0
LINE
  5
247
330
70
100
AcDbEntity
  8
0
 62
    18
420
        0
370
     9
100
AcDbLine
 10
335.8835739830065
 20
542.1361712089537
 30
0.0
 11
335.871878957907
 21
542.1360519997533
 31
0.0
  0
SPLINE
  5
248
330
70
100
AcDbEntity
  8
0
 62
    18
420
        0
370
     9
100
AcDbSpline
210
0.0
220
0.0
230
1.0
 70
     8
 71
     3
 72
    17
 73
    13
 74
     0
 42
0.0000000001
 43
0.0000000001
 40
0.0
 40
0.0
 40
0.0
 40
0.0
 40
1.0
 40
1.0
 40
1.0
 40
2.0
 40
2.0
 40
2.0
 40
3.0
 40
3.0
 40
3.0
 40
4.0
 40
4.0
 40
4.0
 40
4.0
 10
335.8835740411705
 20
542.1361712090011
 30
0.0
 10
335.886575537621
 20
542.1099066889719
 30
0.0
 10
335.8895770340714
 20
542.083642168941
 30
0.0
 10
335.8987922012857
 20
542.0594600311751
 30
0.0
 10
335.9080123307795
 20
542.0352648715634
 30
0.0
 10
335.9234528248417
 20
542.0131543375055
 30
0.0
 10
335.9422237892686
 20
541.9943717590795
 30
0.0
 10
335.9609847868487
 20
541.9755991536722
 30
0.0
 10
335.9830727189619
 20
541.9601509707363
 30
0.0
 10
336.007248615013
 20
541.9509199730383
 30
0.0
 10
336.031425936224
 20
541.9416884311767
 30
0.0
 10
336.0576914675476
 20
541.9386748075785
 30
0.0
 10
336.0839569988712
 20
541.9356611839758
 30
0.0
  0
LINE
  5
249
330
70
100
AcDbEntity
  8
0
 62
    18
420
        0
370
     9
100
AcDbLine
 10
335.8834041330083
 20
543.1815770737521
 30
0.0
 11
335.883566416007
 21
542.1361712089537
 31
0.0
  0
LINE
  5
24A
330
70
100
AcDbEntity
  8
0
 62
    18
420
        0
370
     9
100
AcDbLine
 10
273.1506648754075
 20
533.5156706444522
 30
0.0
 11
273.1505307649077
 21
545.1360133758535
 31
0.0
  0
SPLINE
  5
24B
330
70
100
AcDbEntity
  8
0
 62
    18
420
        0
370
     9
100
AcDbSpline
210
0.0
220
0.0
230
1.0
 70
     8
 71
     3
 72
    17
 73
    13
 74
     0
 42
0.0000000001
 43
0.0000000001
 40
0.0
 40
0.0
 40
0.0
 40
0.0
 40
1.0
 40
1.0
 40
1.0
 40
2.0
 40
2.0
 40
2.0
 40
3.0
 40
3.0
 40
3.0
 40
4.0
 40
4.0
 40
4.0
 40
4.0
 10
248.390887985106
 20
529.9188879600988
 30
0.0
 10
248.3990714206429
 20
529.9044826687195
 30
0.0
 10
248.4072548561798
 20
529.8900773773375
 30
0.0
 10
248.4168160055833
 20
529.8766282669539
 30
0.0
 10
248.4268289163283
 20
529.8625436902775
 30
0.0
 10
248.4383528098387
 20
529.8495077878105
 30
0.0
 10
248.4506341909128
 20
529.8372295967565
 30
0.0
 10
248.4629107915662
 20
529.8249561848797
 30
0.0
 10
248.4759442902086
 20
529.8134398946685
 30
0.0
 10
248.4900254105278
 20
529.8034337631698
 30
0.0
 10
248.5034816253356
 20
529.7938716934059
 30
0.0
 10
248.517894540375
 20
529.7856887180505
 30
0.0
 10
248.5323074554163
 20
529.7775057426916
 30
0.0
  0
LINE
  5
24C
330
70
100
AcDbEntity
  8
0
 62
    18
420
        0
370
     9
100
AcDbLine
 10
248.3908879851078
 20
529.9188879600533
 30
0.0
 11
248.5322404002072
 21
529.9188879600533
 31
0.0
  0
LINE
  5
24D
330
70
100
AcDbEntity
  8
0
 62
    18
420
        0
370
     9
100
AcDbLine
 10
269.650538573107
 20
545.1360133758535
 30
0.0
 11
269.6506577824084
 21
533.5156706444522
 31
0.0
  0
SPLINE
  5
24E
330
70
100
AcDbEntity
  8
0
 62
    18
420
        0
370
     9
100
AcDbSpline
210
0.0
220
0.0
230
1.0
 70
     8
 71
     3
 72
    17
 73
    13
 74
     0
 42
0.0000000001
 43
0.0000000001
 40
0.0
 40
0.0
 40
0.0
 40
0.0
 40
1.0
 40
1.0
 40
1.0
 40
2.0
 40
2.0
 40
2.0
 40
3.0
 40
3.0
 40
3.0
 40
4.0
 40
4.0
 40
4.0
 40
4.0
 10
248.1497424935051
 20
529.6774891487594
 30
0.0
 10
248.1579294284375
 20
529.663084751548
 30
0.0
 10
248.1661163633707
 20
529.6486803543384
 30
0.0
 10
248.1756779645639
 20
529.6352294556117
 30
0.0
 10
248.1856896257677
 20
529.6211454294953
 30
0.0
 10
248.197208408631
 20
529.608106775815
 30
0.0
 10
248.2094886993127
 20
529.5958307854162
 30
0.0
 10
248.2217653573198
 20
529.5835584264177
 30
0.0
 10
248.2348030726835
 20
529.5720482795577
 30
0.0
 10
248.2488799189287
 20
529.5620349518276
 30
0.0
 10
248.2623405072272
 20
529.5524599888213
 30
0.0
 10
248.2767512355213
 20
529.5442536577638
 30
0.0
 10
248.2911619638162
 20
529.5360473267074
 30
0.0
  0
LINE
  5
24F
330
70
100
AcDbEntity
  8
0
 62
    18
420
        0
370
     9
100
AcDbLine
 10
248.1497424935078
 20
529.6774891487538
 30
0.0
 11
248.3908879851078
 21
529.9188879600533
 31
0.0
  0
LINE
  5
250
330
70
100
AcDbEntity
  8
0
 62
    18
420
        0
370
     9
100
AcDbLine
 10
258.0289217924073
 20
534.1889051071521
 30
0.0
 11
258.0289515947079
 21
530.664184438353
 31
0.0
  0
LINE
  5
251
330
70
100
AcDbEntity
  8
0
 62
    18
420
        0
370
     9
100
AcDbLine
 10
248.3908879851078
 20
545.1360133758535
 30
0.0
 11
248.3908879851078
 21
529.9188879600533
 31
0.0
  0
LINE
  5
252
330
70
100
AcDbEntity
  8
0
 62
    18
420
        0
370
     9
100
AcDbLine
 10
248.5317859148072
 20
545.1360133758535
 30
0.0
 11
248.3908879851078
 21
545.1360133758535
 31
0.0
  0
SPLINE
  5
253
330
70
100
AcDbEntity
  8
0
 62
    18
420
        0
370
     9
100
AcDbSpline
210
0.0
220
0.0
230
1.0
 70
     8
 71
     3
 72
    17
 73
    13
 74
     0
 42
0.0000000001
 43
0.0000000001
 40
0.0
 40
0.0
 40
0.0
 40
0.0
 40
1.0
 40
1.0
 40
1.0
 40
2.0
 40
2.0
 40
2.0
 40
3.0
 40
3.0
 40
3.0
 40
4.0
 40
4.0
 40
4.0
 40
4.0
 10
263.1484839414316
 20
533.9557913414473
 30
0.0
 10
263.1424354543233
 20
533.9593709694318
 30
0.0
 10
263.1363869672132
 20
533.9629505974162
 30
0.0
 10
263.130028853293
 20
533.9658645264135
 30
0.0
 10
263.1215277820666
 20
533.9697605745613
 30
0.0
 10
263.1124731960117
 20
533.9724665634303
 30
0.0
 10
263.1032216643053
 20
533.9743283859725
 30
0.0
 10
263.0953003028517
 20
533.9759225186835
 30
0.0
 10
263.0872345575008
 20
533.9768977800067
 30
0.0
 10
263.079253146525
 20
533.9765337578283
 30
0.0
 10
263.0713651887763
 20
533.9761739979349
 30
0.0
 10
263.0635596020493
 20
533.9745061338935
 30
0.0
 10
263.0557540153223
 20
533.9728382698512
 30
0.0
  0
SPLINE
  5
254
330
70
100
AcDbEntity
  8
0
 62
    18
420
        0
370
     9
100
AcDbSpline
210
0.0
220
0.0
230
1.0
 70
     8
 71
     3
 72
    11
 73
     7
 74
     0
 42
0.0000000001
 43
0.0000000001
 40
0.0
 40
0.0
 40
0.0
 40
0.0
 40
1.0
 40
1.0
 40
1.0
 40
2.0
 40
2.0
 40
2.0
 40
2.0
 10
263.1484839414316
 20
533.9557913414473
 30
0.0
 10
263.1520450040834
 20
533.9426562458474
 30
0.0
 10
263.1556060667354
 20
533.9295211502458
 30
0.0
 10
263.1571862195688
 20
533.9161542526708
 30
0.0
 10
263.1588041114574
 20
533.9024681112213
 30
0.0
 10
263.158345342802
 20
533.8885389632423
 30
0.0
 10
263.1578865741449
 20
533.8746098152624
 30
0.0
  0
SPLINE
  5
255
330
70
100
AcDbEntity
  8
0
 62
    18
420
        0
370
     9
100
AcDbSpline
210
0.0
220
0.0
230
1.0
 70
     8
 71
     3
 72
    47
 73
    43
 74
     0
 42
0.0000000001
 43
0.0000000001
 40
0.0
 40
0.0
 40
0.0
 40
0.0
 40
1.0
 40
1.0
 40
1.0
 40
2.0
 40
2.0
 40
2.0
 40
3.0
 40
3.0
 40
3.0
 40
4.0
 40
4.0
 40
4.0
 40
5.0
 40
5.0
 40
5.0
 40
6.0
 40
6.0
 40
6.0
 40
7.0
 40
7.0
 40
7.0
 40
8.0
 40
8.0
 40
8.0
 40
9.0
 40
9.0
 40
9.0
 40
10.0
 40
10.0
 40
10.0
 40
11.0
 40
11.0
 40
11.0
 40
12.0
 40
12.0
 40
12.0
 40
13.0
 40
13.0
 40
13.0
 40
14.0
 40
14.0
 40
14.0
 40
14.0
 10
263.0557540153223
 20
533.9728382698512
 30
0.0
 10
263.0547564569006
 20
533.9741831719011
 30
0.0
 10
263.0537588984789
 20
533.9755280739473
 30
0.0
 10
263.0526322220521
 20
533.9768317810531
 30
0.0
 10
263.0519961574282
 20
533.9775677882598
 30
0.0
 10
263.051318940812
 20
533.9782906659711
 30
0.0
 10
263.0509632919984
 20
533.9791563621993
 30
0.0
 10
263.0507820575894
 20
533.9795975107035
 30
0.0
 10
263.0506843279218
 20
533.9800757463299
 30
0.0
 10
263.0506801699358
 20
533.980586873673
 30
0.0
 10
263.0506781057556
 20
533.9808406162673
 30
0.0
 10
263.0506991022994
 20
533.9811024650207
 30
0.0
 10
263.0507919286429
 20
533.9813021294103
 30
0.0
 10
263.050840265927
 20
533.9814061002607
 30
0.0
 10
263.0509080804131
 20
533.9814932093422
 30
0.0
 10
263.0509111379343
 20
533.9816597572799
 30
0.0
 10
263.0509121509167
 20
533.9817149361033
 30
0.0
 10
263.0509060558125
 20
533.9817788345817
 30
0.0
 10
263.0509483908372
 20
533.9817789665675
 30
0.0
 10
263.0509534418288
 20
533.9817789823155
 30
0.0
 10
263.0509591822174
 20
533.9817780903567
 30
0.0
 10
263.0509632919984
 20
533.9817789665675
 30
0.0
 10
263.0509797311206
 20
533.9817824714218
 30
0.0
 10
263.0509700805287
 20
533.9818142670501
 30
0.0
 10
263.0509632919984
 20
533.9818385712133
 30
0.0
 10
263.050956294539
 20
533.9818636233713
 30
0.0
 10
263.0509523380242
 20
533.981880715849
 30
0.0
 10
263.0509483908372
 20
533.9818981758581
 30
0.0
 10
263.0509054893664
 20
533.982087946455
 30
0.0
 10
263.0508636899212
 20
533.9823211347384
 30
0.0
 10
263.0508217309653
 20
533.9825538269515
 30
0.0
 10
263.0488276634787
 20
533.9936123480083
 30
0.0
 10
263.0464733379231
 20
534.0035504677189
 30
0.0
 10
263.0434829090791
 20
534.0134290329443
 30
0.0
 10
263.0401967869529
 20
534.0242843896312
 30
0.0
 10
263.0361425465598
 20
534.0350678320783
 30
0.0
 10
263.0311074947076
 20
534.0460327736373
 30
0.0
 10
263.0275193306788
 20
534.0538467962187
 30
0.0
 10
263.0234330601452
 20
534.0617529933815
 30
0.0
 10
263.0168917869269
 20
534.0664175621496
 30
0.0
 10
263.012543611474
 20
534.0695182373165
 30
0.0
 10
263.0071106564119
 20
534.0711865505518
 30
0.0
 10
263.0016777013498
 20
534.0728548637853
 30
0.0
  0
SPLINE
  5
256
330
70
100
AcDbEntity
  8
0
 62
    18
420
        0
370
     9
100
AcDbSpline
210
0.0
220
0.0
230
1.0
 70
     8
 71
     3
 72
    17
 73
    13
 74
     0
 42
0.0000000001
 43
0.0000000001
 40
0.0
 40
0.0
 40
0.0
 40
0.0
 40
1.0
 40
1.0
 40
1.0
 40
2.0
 40
2.0
 40
2.0
 40
3.0
 40
3.0
 40
3.0
 40
4.0
 40
4.0
 40
4.0
 40
4.0
 10
258.6554262136179
 20
534.0728548637853
 30
0.0
 10
258.6467648114012
 20
534.0705938958517
 30
0.0
 10
258.6381034091864
 20
534.0683329279163
 30
0.0
 10
258.6310181115823
 20
534.0635565392013
 30
0.0
 10
258.6244685371093
 20
534.0591412957828
 30
0.0
 10
258.6192657375414
 20
534.0525766356559
 30
0.0
 10
258.6146640871721
 20
534.0457943550582
 30
0.0
 10
258.6078032818477
 20
534.0356823510855
 30
0.0
 10
258.6022787803941
 20
534.0250865951966
 30
0.0
 10
258.5976246093469
 20
534.0140846840368
 30
0.0
 10
258.5919770705059
 20
534.0007345686335
 30
0.0
 10
258.5876110296504
 20
533.9867864192438
 30
0.0
 10
258.5832449887949
 20
533.9728382698512
 30
0.0
  0
LINE
  5
257
330
70
100
AcDbEntity
  8
0
 62
    18
420
        0
370
     9
100
AcDbLine
 10
263.0016777013061
 20
534.0728548637525
 30
0.0
 11
258.6554262136078
 21
534.0728548637525
 31
0.0
  0
SPLINE
  5
258
330
70
100
AcDbEntity
  8
0
 62
    18
420
        0
370
     9
100
AcDbSpline
210
0.0
220
0.0
230
1.0
 70
     8
 71
     3
 72
    17
 73
    13
 74
     0
 42
0.0000000001
 43
0.0000000001
 40
0.0
 40
0.0
 40
0.0
 40
0.0
 40
1.0
 40
1.0
 40
1.0
 40
2.0
 40
2.0
 40
2.0
 40
3.0
 40
3.0
 40
3.0
 40
4.0
 40
4.0
 40
4.0
 40
4.0
 10
263.0016777013498
 20
534.0728548637853
 30
0.0
 10
263.0187826520341
 20
534.0708403490999
 30
0.0
 10
263.0358876027203
 20
534.0688258344162
 30
0.0
 10
263.0517232512193
 20
534.0629604927535
 30
0.0
 10
263.067313290634
 20
534.0571861218641
 30
0.0
 10
263.0816730959841
 20
534.0476794494198
 30
0.0
 10
263.0944448803621
 20
534.0365556351161
 30
0.0
 10
263.107064941396
 20
534.0255639669785
 30
0.0
 10
263.118134487373
 20
534.0129933506732
 30
0.0
 10
263.1269592140871
 20
533.9990643135534
 30
0.0
 10
263.1355535462881
 20
533.9854989334408
 30
0.0
 10
263.1420187438598
 20
533.970645137445
 30
0.0
 10
263.1484839414316
 20
533.9557913414473
 30
0.0
  0
LINE
  5
259
330
70
100
AcDbEntity
  8
0
 62
    18
420
        0
370
     9
100
AcDbLine
 10
248.0755347108079
 20
529.7517565361522
 30
0.0
 11
248.1497424935078
 21
529.6774891487538
 31
0.0
  0
LINE
  5
25A
330
70
100
AcDbEntity
  8
0
 62
    18
420
        0
370
     9
100
AcDbLine
 10
248.0755347108079
 20
529.7517565361522
 30
0.0
 11
248.0084869360071
 21
545.1360133758535
 31
0.0
  0
LINE
  5
25B
330
70
100
AcDbEntity
  8
0
 62
    18
420
        0
370
     9
100
AcDbLine
 10
263.1572309230069
 20
534.0728548637525
 30
0.0
 11
263.0016777013061
 21
534.0728548637525
 31
0.0
  0
SPLINE
  5
25C
330
70
100
AcDbEntity
  8
0
 62
    18
420
        0
370
     9
100
AcDbSpline
210
0.0
220
0.0
230
1.0
 70
     8
 71
     3
 72
    29
 73
    25
 74
     0
 42
0.0000000001
 43
0.0000000001
 40
0.0
 40
0.0
 40
0.0
 40
0.0
 40
1.0
 40
1.0
 40
1.0
 40
2.0
 40
2.0
 40
2.0
 40
3.0
 40
3.0
 40
3.0
 40
4.0
 40
4.0
 40
4.0
 40
5.0
 40
5.0
 40
5.0
 40
6.0
 40
6.0
 40
6.0
 40
7.0
 40
7.0
 40
7.0
 40
8.0
 40
8.0
 40
8.0
 40
8.0
 10
263.3700567578017
 20
533.8746098152624
 30
0.0
 10
263.3699374199969
 20
533.8776902680629
 30
0.0
 10
263.3698180821939
 20
533.8807707208598
 30
0.0
 10
263.3696171735483
 20
533.8838485352026
 30
0.0
 10
263.3680962128819
 20
533.9071488491772
 30
0.0
 10
263.3619003378862
 20
533.9302979503108
 30
0.0
 10
263.3522424195962
 20
533.9516786209578
 30
0.0
 10
263.3468505982237
 20
533.9636150189953
 30
0.0
 10
263.3403797396122
 20
533.9750002389637
 30
0.0
 10
263.3328038548189
 20
533.985593663835
 30
0.0
 10
263.3248886406618
 20
533.9966615758758
 30
0.0
 10
263.3157671935641
 20
534.006865174163
 30
0.0
 10
263.3057284449296
 20
534.0161708466029
 30
0.0
 10
263.2859281618985
 20
534.0345252207207
 30
0.0
 10
263.2625592962195
 20
534.0493863895463
 30
0.0
 10
263.2374066208559
 20
534.058847772264
 30
0.0
 10
263.2328992054627
 20
534.0605432730999
 30
0.0
 10
263.2283345058113
 20
534.0620653682399
 30
0.0
 10
263.2237199042993
 20
534.0634373299108
 30
0.0
 10
263.2151782862639
 20
534.0659768281811
 30
0.0
 10
263.2064656947914
 20
534.0680019401315
 30
0.0
 10
263.1976726745325
 20
534.0693977943884
 30
0.0
 10
263.1843158143984
 20
534.0715181386558
 30
0.0
 10
263.1707733687254
 20
534.072186501221
 30
0.0
 10
263.1572309230524
 20
534.0728548637853
 30
0.0
  0
SPLINE
  5
25D
330
70
100
AcDbEntity
  8
0
 62
    18
420
        0
370
     9
100
AcDbSpline
210
0.0
220
0.0
230
1.0
 70
     8
 71
     3
 72
    17
 73
    13
 74
     0
 42
0.0000000001
 43
0.0000000001
 40
0.0
 40
0.0
 40
0.0
 40
0.0
 40
1.0
 40
1.0
 40
1.0
 40
2.0
 40
2.0
 40
2.0
 40
3.0
 40
3.0
 40
3.0
 40
4.0
 40
4.0
 40
4.0
 40
4.0
 10
425.088000604981
 20
529.6774891487594
 30
0.0
 10
425.0941421719435
 20
529.6636080772469
 30
0.0
 10
425.1002837389078
 20
529.6497270057325
 30
0.0
 10
425.1043397282301
 20
529.6352294556117
 30
0.0
 10
425.1079021680052
 20
529.6224960273202
 30
0.0
 10
425.1098557123514
 20
529.6092870235334
 30
0.0
 10
425.109942564839
 20
529.5958307854162
 30
0.0
 10
425.11001729913
 20
529.5842520449077
 30
0.0
 10
425.1087099064334
 20
529.5724902483453
 30
0.0
 10
425.1044291351973
 20
529.5620349518276
 30
0.0
 10
425.1005965244567
 20
529.5526742363072
 30
0.0
 10
425.0943805211045
 20
529.5443607815077
 30
0.0
 10
425.0881645177542
 20
529.5360473267074
 30
0.0
  0
SPLINE
  5
25E
330
70
100
AcDbEntity
  8
0
 62
    18
420
        0
370
     9
100
AcDbSpline
210
0.0
220
0.0
230
1.0
 70
     8
 71
     3
 72
    17
 73
    13
 74
     0
 42
0.0000000001
 43
0.0000000001
 40
0.0
 40
0.0
 40
0.0
 40
0.0
 40
1.0
 40
1.0
 40
1.0
 40
2.0
 40
2.0
 40
2.0
 40
3.0
 40
3.0
 40
3.0
 40
4.0
 40
4.0
 40
4.0
 40
4.0
 10
425.0881645177542
 20
529.5360473267074
 30
0.0
 10
425.0798447989873
 20
529.5298366462747
 30
0.0
 10
425.071525080224
 20
529.5236259658459
 30
0.0
 10
425.0621619914709
 20
529.5197752586828
 30
0.0
 10
425.0516828327418
 20
529.5154655514216
 30
0.0
 10
425.0398967422988
 20
529.5141119613117
 30
0.0
 10
425.0282916520773
 20
529.5141724220748
 30
0.0
 10
425.0148318875253
 20
529.5142425454114
 30
0.0
 10
425.0016155994362
 20
529.5162148106729
 30
0.0
 10
424.988870630139
 20
529.5197752586828
 30
0.0
 10
424.9743646026781
 20
529.5238276777517
 30
0.0
 10
424.9604691433851
 20
529.5299375022286
 30
0.0
 10
424.9465736840902
 20
529.5360473267074
 30
0.0
  0
LINE
  5
25F
330
70
100
AcDbEntity
  8
0
 62
    18
420
        0
370
     9
100
AcDbLine
 10
425.0881645177068
 20
529.5360473267528
 30
0.0
 11
424.8470190261068
 21
529.2946485153533
 31
0.0
  0
SPLINE
  5
260
330
70
100
AcDbEntity
  8
0
 62
    18
420
        0
370
     9
100
AcDbSpline
210
0.0
220
0.0
230
1.0
 70
     8
 71
     3
 72
    17
 73
    13
 74
     0
 42
0.0000000001
 43
0.0000000001
 40
0.0
 40
0.0
 40
0.0
 40
0.0
 40
1.0
 40
1.0
 40
1.0
 40
2.0
 40
2.0
 40
2.0
 40
3.0
 40
3.0
 40
3.0
 40
4.0
 40
4.0
 40
4.0
 40
4.0
 10
424.7054356430708
 20
529.2946485153652
 30
0.0
 10
424.7193286097517
 20
529.2885021586917
 30
0.0
 10
424.7332215764327
 20
529.2823558020163
 30
0.0
 10
424.7477325891195
 20
529.2783168426967
 30
0.0
 10
424.7604732406416
 20
529.274770641321
 30
0.0
 10
424.7736903326222
 20
529.2728489943547
 30
0.0
 10
424.7871536110578
 20
529.2727736107336
 30
0.0
 10
424.7987608910734
 20
529.2727086192217
 30
0.0
 10
424.8105511594348
 20
529.2740159398845
 30
0.0
 10
424.8210239504515
 20
529.2783168426967
 30
0.0
 10
424.8303917239518
 20
529.2821639435642
 30
0.0
 10
424.8387053750557
 20
529.288406229466
 30
0.0
 10
424.8470190261541
 20
529.2946485153652
 30
0.0
  0
SPLINE
  5
261
330
70
100
AcDbEntity
  8
0
 62
    18
420
        0
370
     9
100
AcDbSpline
210
0.0
220
0.0
230
1.0
 70
     8
 71
     3
 72
    17
 73
    13
 74
     0
 42
0.0000000001
 43
0.0000000001
 40
0.0
 40
0.0
 40
0.0
 40
0.0
 40
1.0
 40
1.0
 40
1.0
 40
2.0
 40
2.0
 40
2.0
 40
3.0
 40
3.0
 40
3.0
 40
4.0
 40
4.0
 40
4.0
 40
4.0
 10
425.1623797510801
 20
529.7517565361495
 30
0.0
 10
425.1685216864971
 20
529.7378752493814
 30
0.0
 10
425.1746636219158
 20
529.7239939626151
 30
0.0
 10
425.1787188743292
 20
529.7094968430037
 30
0.0
 10
425.182280666866
 20
529.6967637928328
 30
0.0
 10
425.1842327112536
 20
529.683555665334
 30
0.0
 10
425.1843217109381
 20
529.6700981728063
 30
0.0
 10
425.1843982928367
 20
529.6585183529096
 30
0.0
 10
425.1830954481538
 20
529.6467538993574
 30
0.0
 10
425.1788082812963
 20
529.6363023392177
 30
0.0
 10
425.1749762681847
 20
529.6269603852406
 30
0.0
 10
425.1687599660199
 20
529.6186673519896
 30
0.0
 10
425.1625436638533
 20
529.6103743187414
 30
0.0
  0
LINE
  5
262
330
70
100
AcDbEntity
  8
0
 62
    18
420
        0
370
     9
100
AcDbLine
 10
425.1625436638059
 20
529.6103743187532
 30
0.0
 11
425.0881645177068
 21
529.5360473267528
 31
0.0
  0
SPLINE
  5
263
330
70
100
AcDbEntity
  8
0
 62
    18
420
        0
370
     9
100
AcDbSpline
210
0.0
220
0.0
230
1.0
 70
     8
 71
     3
 72
     8
 73
     4
 74
     0
 42
0.0000000001
 43
0.0000000001
 40
0.0
 40
0.0
 40
0.0
 40
0.0
 40
1.0
 40
1.0
 40
1.0
 40
1.0
 10
425.162543663866
 20
529.6103743187477
 30
0.0
 10
425.1998420895197
 20
529.6476641029357
 30
0.0
 10
425.2208960349525
 20
529.6981807178717
 30
0.0
 10
425.221120128519
 20
529.7509220711281
 30
0.0
  0
SPLINE
  5
264
330
70
100
AcDbEntity
  8
0
 62
    18
420
        0
370
     9
100
AcDbSpline
210
0.0
220
0.0
230
1.0
 70
     8
 71
     3
 72
    17
 73
    13
 74
     0
 42
0.0000000001
 43
0.0000000001
 40
0.0
 40
0.0
 40
0.0
 40
0.0
 40
1.0
 40
1.0
 40
1.0
 40
2.0
 40
2.0
 40
2.0
 40
3.0
 40
3.0
 40
3.0
 40
4.0
 40
4.0
 40
4.0
 40
4.0
 10
425.1623797510801
 20
529.7517565361495
 30
0.0
 10
425.1706825396322
 20
529.7516928083632
 30
0.0
 10
425.1789853281807
 20
529.751629080577
 30
0.0
 10
425.1872870420156
 20
529.7515181175695
 30
0.0
 10
425.1934583025977
 20
529.751435630792
 30
0.0
 10
425.1996289692906
 20
529.7513270417475
 30
0.0
 10
425.205801734799
 20
529.7512796989913
 30
0.0
 10
425.2096123569426
 20
529.7512504729702
 30
0.0
 10
425.2134237789359
 20
529.7512445875509
 30
0.0
 10
425.2172309254347
 20
529.7511008850561
 30
0.0
 10
425.218527657129
 20
529.7510519393218
 30
0.0
 10
425.2198238928176
 20
529.7509870052217
 30
0.0
 10
425.2211201285063
 20
529.7509220711217
 30
0.0
  0
LINE
  5
265
330
70
100
AcDbEntity
  8
0
 62
    18
420
        0
370
     9
100
AcDbLine
 10
425.2883243655069
 20
545.1360133758535
 30
0.0
 11
425.2211201285063
 21
529.7509220711535
 31
0.0
  0
LINE
  5
266
330
70
100
AcDbEntity
  8
0
 62
    18
420
        0
370
     9
100
AcDbLine
 10
425.2883243655069
 20
545.1360133758535
 30
0.0
 11
425.2295839881062
 21
545.1360133758535
 31
0.0
  0
LINE
  5
267
330
70
100
AcDbEntity
  8
0
 62
    18
420
        0
370
     9
100
AcDbLine
 10
425.1625436638059
 20
529.6103743187532
 30
0.0
 11
425.1801791881062
 21
529.6103743187532
 31
0.0
  0
LINE
  5
268
330
70
100
AcDbEntity
  8
0
 62
    18
420
        0
370
     9
100
AcDbLine
 10
425.1059714054063
 20
529.5360473267528
 30
0.0
 11
425.1801791881062
 21
529.6103743187532
 31
0.0
  0
LINE
  5
269
330
70
100
AcDbEntity
  8
0
 62
    18
420
        0
370
     9
100
AcDbLine
 10
424.8642671202069
 20
529.2946485153533
 30
0.0
 11
425.1059714054063
 21
529.5360473267528
 31
0.0
  0
LINE
  5
26A
330
70
100
AcDbEntity
  8
0
 62
    18
420
        0
370
     9
100
AcDbLine
 10
424.8470190261068
 20
529.2946485153533
 30
0.0
 11
424.8642671202069
 21
529.2946485153533
 31
0.0
  0
SPLINE
  5
26B
330
70
100
AcDbEntity
  8
0
 62
    18
420
        0
370
     9
100
AcDbSpline
210
0.0
220
0.0
230
1.0
 70
     8
 71
     3
 72
    17
 73
    13
 74
     0
 42
0.0000000001
 43
0.0000000001
 40
0.0
 40
0.0
 40
0.0
 40
0.0
 40
1.0
 40
1.0
 40
1.0
 40
2.0
 40
2.0
 40
2.0
 40
3.0
 40
3.0
 40
3.0
 40
4.0
 40
4.0
 40
4.0
 40
4.0
 10
248.2911619638162
 20
529.5360473267074
 30
0.0
 10
248.2772890527895
 20
529.5299379528951
 30
0.0
 10
248.2634161417645
 20
529.5238285790847
 30
0.0
 10
248.2489320729929
 20
529.5197752586828
 30
0.0
 10
248.2362124078927
 20
529.5162157010172
 30
0.0
 10
248.2230214144902
 20
529.5142417833403
 30
0.0
 10
248.2095855568605
 20
529.5141724220748
 30
0.0
 10
248.1980118826304
 20
529.5141126741428
 30
0.0
 10
248.1862565158735
 20
529.5154661325077
 30
0.0
 10
248.1758120750146
 20
529.5197752586828
 30
0.0
 10
248.1664789950583
 20
529.5236258639679
 30
0.0
 10
248.1581927006682
 20
529.5298365953367
 30
0.0
 10
248.1499064062791
 20
529.5360473267074
 30
0.0
  0
SPLINE
  5
26C
330
70
100
AcDbEntity
  8
0
 62
    18
420
        0
370
     9
100
AcDbSpline
210
0.0
220
0.0
230
1.0
 70
     8
 71
     3
 72
     8
 73
     4
 74
     0
 42
0.0000000001
 43
0.0000000001
 40
0.0
 40
0.0
 40
0.0
 40
0.0
 40
1.0
 40
1.0
 40
1.0
 40
1.0
 10
248.1497424935078
 20
529.6774891488012
 30
0.0
 10
248.1201730327593
 20
529.6349592926362
 30
0.0
 10
248.1202384518838
 20
529.578508534415
 30
0.0
 10
248.1499064062809
 20
529.5360473267492
 30
0.0
  0
SPLINE
  5
26D
330
70
100
AcDbEntity
  8
0
 62
    18
420
        0
370
     9
100
AcDbSpline
210
0.0
220
0.0
230
1.0
 70
     8
 71
     3
 72
    17
 73
    13
 74
     0
 42
0.0000000001
 43
0.0000000001
 40
0.0
 40
0.0
 40
0.0
 40
0.0
 40
1.0
 40
1.0
 40
1.0
 40
2.0
 40
2.0
 40
2.0
 40
3.0
 40
3.0
 40
3.0
 40
4.0
 40
4.0
 40
4.0
 40
4.0
 10
248.3916106914239
 20
529.2946485153652
 30
0.0
 10
248.3998934512438
 20
529.2884062616812
 30
0.0
 10
248.4081762110654
 20
529.2821640079973
 30
0.0
 10
248.4175163601594
 20
529.2783168426967
 30
0.0
 10
248.4279549170606
 20
529.2740172481763
 30
0.0
 10
248.4397141862191
 20
529.2727091939204
 30
0.0
 10
248.4512898420053
 20
529.2727736107336
 30
0.0
 10
248.4647264878395
 20
529.2728483836818
 30
0.0
 10
248.477915736441
 20
529.2747723985512
 30
0.0
 10
248.4906289075571
 20
529.2783168426967
 30
0.0
 10
248.5051204087249
 20
529.2823570869504
 30
0.0
 10
248.518993328843
 20
529.2885028011578
 30
0.0
 10
248.532866248961
 20
529.2946485153652
 30
0.0
  0
LINE
  5
26E
330
70
100
AcDbEntity
  8
0
 62
    18
420
        0
370
     9
100
AcDbLine
 10
248.3916106914084
 20
529.2946485153533
 30
0.0
 11
248.1499064063082
 21
529.5360473267528
 31
0.0
  0
SPLINE
  5
26F
330
70
100
AcDbEntity
  8
0
 62
    18
420
        0
370
     9
100
AcDbSpline
210
0.0
220
0.0
230
1.0
 70
     8
 71
     3
 72
    17
 73
    13
 74
     0
 42
0.0000000001
 43
0.0000000001
 40
0.0
 40
0.0
 40
0.0
 40
0.0
 40
1.0
 40
1.0
 40
1.0
 40
2.0
 40
2.0
 40
2.0
 40
3.0
 40
3.0
 40
3.0
 40
4.0
 40
4.0
 40
4.0
 40
4.0
 10
248.0757060741144
 20
529.6103743187414
 30
0.0
 10
248.0694543546742
 20
529.6186641121876
 30
0.0
 10
248.0632026352323
 20
529.6269539056347
 30
0.0
 10
248.0593371485429
 20
529.6363023392177
 30
0.0
 10
248.0550183850073
 20
529.6467469940089
 30
0.0
 10
248.0536782976278
 20
529.6585131234742
 30
0.0
 10
248.0537268613534
 20
529.6700981728063
 30
0.0
 10
248.0537832590217
 20
529.6835520372151
 30
0.0
 10
248.055712456955
 20
529.696761688433
 30
0.0
 10
248.0592551921564
 20
529.7094968430037
 30
0.0
 10
248.0632878925444
 20
529.723993287097
 30
0.0
 10
248.0694113016525
 20
529.7378749116233
 30
0.0
 10
248.0755347107606
 20
529.7517565361495
 30
0.0
  0
LINE
  5
270
330
70
100
AcDbEntity
  8
0
 62
    18
420
        0
370
     9
100
AcDbLine
 10
425.2387556528065
 20
529.7509220711535
 30
0.0
 11
425.3058034276072
 21
545.1360133758535
 31
0.0
  0
LINE
  5
271
330
70
100
AcDbEntity
  8
0
 62
    18
420
        0
370
     9
100
AcDbLine
 10
425.2883243655069
 20
545.1360133758535
 30
0.0
 11
425.3058034276072
 21
545.1360133758535
 31
0.0
  0
SPLINE
  5
272
330
70
100
AcDbEntity
  8
0
 62
    18
420
        0
370
     9
100
AcDbSpline
210
0.0
220
0.0
230
1.0
 70
     8
 71
     3
 72
     8
 73
     4
 74
     0
 42
0.0000000001
 43
0.0000000001
 40
0.0
 40
0.0
 40
0.0
 40
0.0
 40
1.0
 40
1.0
 40
1.0
 40
1.0
 10
425.1801791881661
 20
529.6103743187477
 30
0.0
 10
425.2174776138199
 20
529.6476641029357
 30
0.0
 10
425.2385315592509
 20
529.6981807178717
 30
0.0
 10
425.2387556528192
 20
529.7509220711281
 30
0.0
  0
SPLINE
  5
273
330
70
100
AcDbEntity
  8
0
 62
    18
420
        0
370
     9
100
AcDbSpline
210
0.0
220
0.0
230
1.0
 70
     8
 71
     3
 72
     8
 73
     4
 74
     0
 42
0.0000000001
 43
0.0000000001
 40
0.0
 40
0.0
 40
0.0
 40
0.0
 40
1.0
 40
1.0
 40
1.0
 40
1.0
 10
424.705435643109
 20
529.2946485153997
 30
0.0
 10
424.7054162767599
 20
529.2751179231991
 30
0.0
 10
424.7054709147432
 20
529.2555873277223
 30
0.0
 10
424.7055995558821
 20
529.2360571495819
 30
0.0
  0
LINE
  5
274
330
70
100
AcDbEntity
  8
0
 62
    18
420
        0
370
     9
100
AcDbLine
 10
248.5330301617078
 20
529.2360571495509
 30
0.0
 11
424.7055995558057
 21
529.2360571495509
 31
0.0
  0
SPLINE
  5
275
330
70
100
AcDbEntity
  8
0
 62
    18
420
        0
370
     9
100
AcDbSpline
210
0.0
220
0.0
230
1.0
 70
     8
 71
     3
 72
    17
 73
    13
 74
     0
 42
0.0000000001
 43
0.0000000001
 40
0.0
 40
0.0
 40
0.0
 40
0.0
 40
1.0
 40
1.0
 40
1.0
 40
2.0
 40
2.0
 40
2.0
 40
3.0
 40
3.0
 40
3.0
 40
4.0
 40
4.0
 40
4.0
 40
4.0
 10
248.532866248961
 20
529.2946485153652
 30
0.0
 10
248.5328765522763
 20
529.2863634535515
 30
0.0
 10
248.5328868555916
 20
529.2780783917351
 30
0.0
 10
248.5329035018631
 20
529.2697933784957
 30
0.0
 10
248.5329158768018
 20
529.2636342503437
 30
0.0
 10
248.5329317571886
 20
529.2574751490356
 30
0.0
 10
248.532940754767
 20
529.2513159386134
 30
0.0
 10
248.5329462984673
 20
529.2475210487155
 30
0.0
 10
248.5329492293204
 20
529.2437261173927
 30
0.0
 10
248.5329854582506
 20
529.2399314514623
 30
0.0
 10
248.5329977881929
 20
529.2386399970009
 30
0.0
 10
248.5330139749631
 20
529.2373485732751
 30
0.0
 10
248.5330301617342
 20
529.2360571495509
 30
0.0
  0
SPLINE
  5
276
330
70
100
AcDbEntity
  8
0
 62
    18
420
        0
370
     9
100
AcDbSpline
210
0.0
220
0.0
230
1.0
 70
     8
 71
     3
 72
    17
 73
    13
 74
     0
 42
0.0000000001
 43
0.0000000001
 40
0.0
 40
0.0
 40
0.0
 40
0.0
 40
1.0
 40
1.0
 40
1.0
 40
2.0
 40
2.0
 40
2.0
 40
3.0
 40
3.0
 40
3.0
 40
4.0
 40
4.0
 40
4.0
 40
4.0
 10
424.8470190261541
 20
529.2946485153652
 30
0.0
 10
424.837238175669
 20
529.2859176792335
 30
0.0
 10
424.8274573251838
 20
529.2771868431
 30
0.0
 10
424.8167175148664
 20
529.2697933784957
 30
0.0
 10
424.8059738439478
 20
529.2623972561869
 30
0.0
 10
424.7942705236473
 20
529.2563394670605
 30
0.0
 10
424.7821393703161
 20
529.2513159386134
 30
0.0
 10
424.7700067276964
 20
529.2462917934517
 30
0.0
 10
424.7574461469939
 20
529.2423021629302
 30
0.0
 10
424.74461824643
 20
529.2399314514623
 30
0.0
 10
424.7317902326212
 20
529.2375607190661
 30
0.0
 10
424.7186948942326
 20
529.2368089343081
 30
0.0
 10
424.7055995558439
 20
529.2360571495509
 30
0.0
  0
SPLINE
  5
277
330
70
100
AcDbEntity
  8
0
 62
    18
420
        0
370
     9
100
AcDbSpline
210
0.0
220
0.0
230
1.0
 70
     8
 71
     3
 72
    17
 73
    13
 74
     0
 42
0.0000000001
 43
0.0000000001
 40
0.0
 40
0.0
 40
0.0
 40
0.0
 40
1.0
 40
1.0
 40
1.0
 40
2.0
 40
2.0
 40
2.0
 40
3.0
 40
3.0
 40
3.0
 40
4.0
 40
4.0
 40
4.0
 40
4.0
 10
248.0171221588808
 20
529.7509220711217
 30
0.0
 10
248.0183885895876
 20
529.7509869866826
 30
0.0
 10
248.0196550202936
 20
529.7510519022425
 30
0.0
 10
248.0209219549843
 20
529.7511008850561
 30
0.0
 10
248.0246991755366
 20
529.7512469216935
 30
0.0
 10
248.0284808758333
 20
529.7512513375623
 30
0.0
 10
248.0322617386528
 20
529.7512796989913
 30
0.0
 10
248.0384097375418
 20
529.7513258170429
 30
0.0
 10
248.0445555220194
 20
529.7514352506941
 30
0.0
 10
248.0507019256302
 20
529.7515181175695
 30
0.0
 10
248.0589787721938
 20
529.751629707448
 30
0.0
 10
248.0672567414767
 20
529.7516931217987
 30
0.0
 10
248.0755347107606
 20
529.7517565361495
 30
0.0
  0
LINE
  5
278
330
70
100
AcDbEntity
  8
0
 62
    18
420
        0
370
     9
100
AcDbLine
 10
248.017122158908
 20
529.7509220711535
 30
0.0
 11
247.9500743841081
 21
545.1360133758535
 31
0.0
  0
LINE
  5
279
330
70
100
AcDbEntity
  8
0
 62
    18
420
        0
370
     9
100
AcDbLine
 10
248.0084869360071
 20
545.1360133758535
 30
0.0
 11
247.9500743841081
 21
545.1360133758535
 31
0.0
  0
SPLINE
  5
27A
330
70
100
AcDbEntity
  8
0
 62
    18
420
        0
370
     9
100
AcDbSpline
210
0.0
220
0.0
230
1.0
 70
     8
 71
     3
 72
    17
 73
    13
 74
     0
 42
0.0000000001
 43
0.0000000001
 40
0.0
 40
0.0
 40
0.0
 40
0.0
 40
1.0
 40
1.0
 40
1.0
 40
2.0
 40
2.0
 40
2.0
 40
3.0
 40
3.0
 40
3.0
 40
4.0
 40
4.0
 40
4.0
 40
4.0
 10
258.5060271714883
 20
533.960440503738
 30
0.0
 10
258.5102683316663
 20
533.9631670947856
 30
0.0
 10
258.5145094918444
 20
533.9658936858313
 30
0.0
 10
258.5190582369524
 20
533.9679506889797
 30
0.0
 10
258.525126521743
 20
533.9706948482244
 30
0.0
 10
258.531742217835
 20
533.9722473366582
 30
0.0
 10
258.5383924936014
 20
533.9733151070113
 30
0.0
 10
258.5456500425717
 20
533.9744803813382
 30
0.0
 10
258.5529487748772
 20
533.9750683712127
 30
0.0
 10
258.560230145331
 20
533.9749244324202
 30
0.0
 10
258.5679146515285
 20
533.9747725244023
 30
0.0
 10
258.5755798201608
 20
533.9738053971277
 30
0.0
 10
258.5832449887949
 20
533.9728382698512
 30
0.0
  0
SPLINE
  5
27B
330
70
100
AcDbEntity
  8
0
 62
    18
420
        0
370
     9
100
AcDbSpline
210
0.0
220
0.0
230
1.0
 70
     8
 71
     3
 72
    11
 73
     7
 74
     0
 42
0.0000000001
 43
0.0000000001
 40
0.0
 40
0.0
 40
0.0
 40
0.0
 40
1.0
 40
1.0
 40
1.0
 40
2.0
 40
2.0
 40
2.0
 40
2.0
 10
258.4971684311586
 20
533.8642386070723
 30
0.0
 10
258.4953547067235
 20
533.876073165874
 30
0.0
 10
258.4935409822883
 20
533.8879077246774
 30
0.0
 10
258.4936592076974
 20
533.8996437660671
 30
0.0
 10
258.4938653690333
 20
533.9201090620581
 30
0.0
 10
258.4999462702599
 20
533.9402747828962
 30
0.0
 10
258.5060271714883
 20
533.960440503738
 30
0.0
  0
SPLINE
  5
27C
330
70
100
AcDbEntity
  8
0
 62
    18
420
        0
370
     9
100
AcDbSpline
210
0.0
220
0.0
230
1.0
 70
     8
 71
     3
 72
    17
 73
    13
 74
     0
 42
0.0000000001
 43
0.0000000001
 40
0.0
 40
0.0
 40
0.0
 40
0.0
 40
1.0
 40
1.0
 40
1.0
 40
2.0
 40
2.0
 40
2.0
 40
3.0
 40
3.0
 40
3.0
 40
4.0
 40
4.0
 40
4.0
 40
4.0
 10
258.5060271714883
 20
533.960440503738
 30
0.0
 10
258.5119161924995
 20
533.9731016773957
 30
0.0
 10
258.5178052135088
 20
533.9857628510535
 30
0.0
 10
258.525257120009
 20
533.9974549881453
 30
0.0
 10
258.5337116918999
 20
534.0107203201287
 30
0.0
 10
258.5441780211895
 20
534.0227383012997
 30
0.0
 10
258.5560429190355
 20
534.033396588944
 30
0.0
 10
258.5691009412603
 20
534.0451266652389
 30
0.0
 10
258.5838529523826
 20
534.0552098392517
 30
0.0
 10
258.5999119375902
 20
534.0614703766322
 30
0.0
 10
258.6173851578132
 20
534.0682822484295
 30
0.0
 10
258.6364056857146
 20
534.0705685561069
 30
0.0
 10
258.6554262136179
 20
534.0728548637853
 30
0.0
  0
SPLINE
  5
27D
330
70
100
AcDbEntity
  8
0
 62
    18
420
        0
370
     9
100
AcDbSpline
210
0.0
220
0.0
230
1.0
 70
     8
 71
     3
 72
    23
 73
    19
 74
     0
 42
0.0000000001
 43
0.0000000001
 40
0.0
 40
0.0
 40
0.0
 40
0.0
 40
1.0
 40
1.0
 40
1.0
 40
2.0
 40
2.0
 40
2.0
 40
3.0
 40
3.0
 40
3.0
 40
4.0
 40
4.0
 40
4.0
 40
5.0
 40
5.0
 40
5.0
 40
6.0
 40
6.0
 40
6.0
 40
6.0
 10
258.4260079358774
 20
533.8746098152624
 30
0.0
 10
258.4295071749184
 20
533.899227964599
 30
0.0
 10
258.4330064139594
 20
533.9238461139384
 30
0.0
 10
258.4420266841608
 20
533.9466122261519
 30
0.0
 10
258.4477347579414
 20
533.961018740073
 30
0.0
 10
258.4556536867221
 20
533.9746836197928
 30
0.0
 10
258.4648627136903
 20
533.9873221985317
 30
0.0
 10
258.4742680586023
 20
534.0002302063703
 30
0.0
 10
258.4850190925936
 20
534.0120676894721
 30
0.0
 10
258.497049221869
 20
534.0224889389491
 30
0.0
 10
258.5147549763606
 20
534.0378267695378
 30
0.0
 10
258.5352314415741
 20
534.0500968273545
 30
0.0
 10
258.5570934508996
 20
534.0587881676183
 30
0.0
 10
258.5714755251756
 20
534.0645058260179
 30
0.0
 10
258.586457229323
 20
534.0686747022955
 30
0.0
 10
258.6016851757722
 20
534.0707090965743
 30
0.0
 10
258.613961352863
 20
534.0723491459739
 30
0.0
 10
258.6263975617458
 20
534.0726020048805
 30
0.0
 10
258.6388337706267
 20
534.0728548637853
 30
0.0
  0
LINE
  5
27E
330
70
100
AcDbEntity
  8
0
 62
    18
420
        0
370
     9
100
AcDbLine
 10
258.6554262136078
 20
534.0728548637525
 30
0.0
 11
258.6388337706085
 21
534.0728548637525
 31
0.0
  0
SPLINE
  5
27F
330
70
100
AcDbEntity
  8
0
 62
    18
420
        0
370
     9
100
AcDbSpline
210
0.0
220
0.0
230
1.0
 70
     8
 71
     3
 72
     8
 73
     4
 74
     0
 42
0.0000000001
 43
0.0000000001
 40
0.0
 40
0.0
 40
0.0
 40
0.0
 40
1.0
 40
1.0
 40
1.0
 40
1.0
 10
424.7228476499621
 20
529.2360571495301
 30
0.0
 10
424.7758848438897
 20
529.2360975581551
 30
0.0
 10
424.8267416962153
 20
529.2571680121163
 30
0.0
 10
424.8642671202723
 20
529.2946485153443
 30
0.0
  0
LINE
  5
280
330
70
100
AcDbEntity
  8
0
 62
    18
420
        0
370
     9
100
AcDbLine
 10
424.7055995558057
 20
529.2360571495509
 30
0.0
 11
424.7228476499058
 21
529.2360571495509
 31
0.0
  0
SPLINE
  5
281
330
70
100
AcDbEntity
  8
0
 62
    18
420
        0
370
     9
100
AcDbSpline
210
0.0
220
0.0
230
1.0
 70
     8
 71
     3
 72
    23
 73
    19
 74
     0
 42
0.0000000001
 43
0.0000000001
 40
0.0
 40
0.0
 40
0.0
 40
0.0
 40
1.0
 40
1.0
 40
1.0
 40
2.0
 40
2.0
 40
2.0
 40
3.0
 40
3.0
 40
3.0
 40
4.0
 40
4.0
 40
4.0
 40
5.0
 40
5.0
 40
5.0
 40
6.0
 40
6.0
 40
6.0
 40
6.0
 10
263.3732903097826
 20
533.8746098152624
 30
0.0
 10
263.371944440034
 20
533.8883539634434
 30
0.0
 10
263.3705985702836
 20
533.9020981116227
 30
0.0
 10
263.3675459121423
 20
533.9154986015783
 30
0.0
 10
263.3643384098068
 20
533.9295788230783
 30
0.0
 10
263.3592465760103
 20
533.9432796384325
 30
0.0
 10
263.352875718947
 20
533.9563277832485
 30
0.0
 10
263.3462095921686
 20
533.969980669618
 30
0.0
 10
263.338143137109
 20
533.9829189849215
 30
0.0
 10
263.3287358378129
 20
533.9947727791296
 30
0.0
 10
263.318897986037
 20
534.0071690967898
 30
0.0
 10
263.3075937460635
 20
534.0183793490678
 30
0.0
 10
263.2951560710626
 20
534.028330194139
 30
0.0
 10
263.2809207569962
 20
534.0397192523669
 30
0.0
 10
263.265200696369
 20
534.0494585464084
 30
0.0
 10
263.2484930847841
 20
534.0561655632472
 30
0.0
 10
263.2208637398762
 20
534.0672569440021
 30
0.0
 10
263.1905337222924
 20
534.0700559038932
 30
0.0
 10
263.1602037047105
 20
534.0728548637853
 30
0.0
  0
LINE
  5
282
330
70
100
AcDbEntity
  8
0
 62
    18
420
        0
370
     9
100
AcDbLine
 10
263.373290309808
 20
533.8746098152532
 30
0.0
 11
263.3700567578071
 21
533.8746098152532
 31
0.0
  0
LINE
  5
283
330
70
100
AcDbEntity
  8
0
 62
    18
420
        0
370
     9
100
AcDbLine
 10
269.6508142446073
 20
545.1360133758535
 30
0.0
 11
269.6508962010085
 21
536.7888597122528
 31
0.0
  0
LINE
  5
284
330
70
100
AcDbEntity
  8
0
 62
    18
420
        0
370
     9
100
AcDbLine
 10
269.6548524593072
 20
536.7888597122528
 30
0.0
 11
269.6508962010085
 21
536.7888597122528
 31
0.0
  0
LINE
  5
285
330
70
100
AcDbEntity
  8
0
 62
    18
420
        0
370
     9
100
AcDbLine
 10
269.6549195145081
 20
533.5156706444522
 30
0.0
 11
269.6548524593072
 21
536.7888597122528
 31
0.0
  0
LINE
  5
286
330
70
100
AcDbEntity
  8
0
 62
    18
420
        0
370
     9
100
AcDbLine
 10
263.3960592841086
 20
531.0750988594545
 30
0.0
 11
263.399330089007
 21
531.0750988594545
 31
0.0
  0
LINE
  5
287
330
70
100
AcDbEntity
  8
0
 62
    18
420
        0
370
     9
100
AcDbLine
 10
263.373290309808
 20
533.8746098152532
 30
0.0
 11
263.399330089007
 21
531.0750988594545
 31
0.0
  0
SPLINE
  5
288
330
70
100
AcDbEntity
  8
0
 62
    18
420
        0
370
     9
100
AcDbSpline
210
0.0
220
0.0
230
1.0
 70
     8
 71
     3
 72
    23
 73
    19
 74
     0
 42
0.0000000001
 43
0.0000000001
 40
0.0
 40
0.0
 40
0.0
 40
0.0
 40
1.0
 40
1.0
 40
1.0
 40
2.0
 40
2.0
 40
2.0
 40
3.0
 40
3.0
 40
3.0
 40
4.0
 40
4.0
 40
4.0
 40
5.0
 40
5.0
 40
5.0
 40
6.0
 40
6.0
 40
6.0
 40
6.0
 10
263.2927793358504
 20
530.9741881958471
 30
0.0
 10
263.3074903160377
 20
530.9754902378781
 30
0.0
 10
263.3222012962233
 20
530.9767922799074
 30
0.0
 10
263.3356872295099
 20
530.9819964043136
 30
0.0
 10
263.3445171102648
 20
530.9854037916229
 30
0.0
 10
263.3528218204538
 20
530.9904839792307
 30
0.0
 10
263.3602964972215
 20
530.9964803329931
 30
0.0
 10
263.3665905336693
 20
531.0015295505472
 30
0.0
 10
263.3722960392443
 20
531.007228370946
 30
0.0
 10
263.3772540186601
 20
531.0135272613997
 30
0.0
 10
263.3820125725815
 20
531.0195727907112
 30
0.0
 10
263.3860825266201
 20
531.0261710875293
 30
0.0
 10
263.3894208167749
 20
531.0331371895308
 30
0.0
 10
263.3926251146968
 20
531.0398236862556
 30
0.0
 10
263.3951553050065
 20
531.0468490547982
 30
0.0
 10
263.3967000340181
 20
531.0540584198451
 30
0.0
 10
263.3981787081157
 20
531.060959501704
 30
0.0
 10
263.3987543985422
 20
531.0680291805774
 30
0.0
 10
263.3993300889688
 20
531.0750988594518
 30
0.0
  0
LINE
  5
289
330
70
100
AcDbEntity
  8
0
 62
    18
420
        0
370
     9
100
AcDbLine
 10
411.2678814028076
 20
542.4492148033532
 30
0.0
 11
414.2678800319063
 21
542.4492148033532
 31
0.0
  0
SPLINE
  5
28A
330
70
100
AcDbEntity
  8
0
 62
    18
420
        0
370
     9
100
AcDbSpline
210
0.0
220
0.0
230
1.0
 70
     8
 71
     3
 72
    17
 73
    13
 74
     0
 42
0.0000000001
 43
0.0000000001
 40
0.0
 40
0.0
 40
0.0
 40
0.0
 40
1.0
 40
1.0
 40
1.0
 40
2.0
 40
2.0
 40
2.0
 40
3.0
 40
3.0
 40
3.0
 40
4.0
 40
4.0
 40
4.0
 40
4.0
 10
411.2678143476187
 20
542.3077729813085
 30
0.0
 10
411.2678250347744
 20
542.3178859020854
 30
0.0
 10
411.2678357219283
 20
542.3279988228578
 30
0.0
 10
411.2678441499411
 20
542.3381117454992
 30
0.0
 10
411.2678537535685
 20
542.3496353084219
 30
0.0
 10
411.2678604238499
 20
542.3611588737667
 30
0.0
 10
411.2678665016828
 20
542.3726824394698
 30
0.0
 10
411.2678730929874
 20
542.3851795461678
 30
0.0
 10
411.2678789875099
 20
542.3976766532896
 30
0.0
 10
411.267881402844
 20
542.4101737610317
 30
0.0
 10
411.2678839180189
 20
542.4231874413599
 30
0.0
 10
411.2678826604314
 20
542.4362011223593
 30
0.0
 10
411.267881402844
 20
542.4492148033605
 30
0.0
  0
LINE
  5
28B
330
70
100
AcDbEntity
  8
0
 62
    18
420
        0
370
     9
100
AcDbLine
 10
411.2678814028076
 20
542.9345158211535
 30
0.0
 11
411.3557759021078
 21
543.0224326721527
 31
0.0
  0
LINE
  5
28C
330
70
100
AcDbEntity
  8
0
 62
    18
420
        0
370
     9
100
AcDbLine
 10
414.1799929832086
 20
543.0224326721527
 30
0.0
 11
414.2093035673078
 21
542.9931071869532
 31
0.0
  0
SPLINE
  5
28D
330
70
100
AcDbEntity
  8
0
 62
    18
420
        0
370
     9
100
AcDbSpline
210
0.0
220
0.0
230
1.0
 70
     8
 71
     3
 72
    17
 73
    13
 74
     0
 42
0.0000000001
 43
0.0000000001
 40
0.0
 40
0.0
 40
0.0
 40
0.0
 40
1.0
 40
1.0
 40
1.0
 40
2.0
 40
2.0
 40
2.0
 40
3.0
 40
3.0
 40
3.0
 40
4.0
 40
4.0
 40
4.0
 40
4.0
 10
414.209303567286
 20
542.9931071869368
 30
0.0
 10
414.218042913093
 20
542.9833359764534
 30
0.0
 10
414.2267822589001
 20
542.9735647659717
 30
0.0
 10
414.2341736053167
 20
542.9628280273901
 30
0.0
 10
414.2415784249278
 20
542.9520717175228
 30
0.0
 10
414.2476303263119
 20
542.940346356353
 30
0.0
 10
414.2526584957795
 20
542.9281977287756
 30
0.0
 10
414.2576772866668
 20
542.9160717609102
 30
0.0
 10
414.2616761610206
 20
542.9035241041256
 30
0.0
 10
414.2640429829316
 20
542.8907064072109
 30
0.0
 10
414.2664126708114
 20
542.877873189438
 30
0.0
 10
414.2671463513725
 20
542.8647692771619
 30
0.0
 10
414.267880031939
 20
542.8516653648848
 30
0.0
  0
LINE
  5
28E
330
70
100
AcDbEntity
  8
0
 62
    18
420
        0
370
     9
100
AcDbLine
 10
411.2678814028076
 20
542.4492148033532
 30
0.0
 11
411.2678814028076
 21
542.9345158211535
 31
0.0
  0
LINE
  5
28F
330
70
100
AcDbEntity
  8
0
 62
    18
420
        0
370
     9
100
AcDbLine
 10
414.2097655033067
 20
542.9931071869532
 30
0.0
 11
414.2093035673078
 21
542.9931071869532
 31
0.0
  0
SPLINE
  5
290
330
70
100
AcDbEntity
  8
0
 62
    18
420
        0
370
     9
100
AcDbSpline
210
0.0
220
0.0
230
1.0
 70
     8
 71
     3
 72
    17
 73
    13
 74
     0
 42
0.0000000001
 43
0.0000000001
 40
0.0
 40
0.0
 40
0.0
 40
0.0
 40
1.0
 40
1.0
 40
1.0
 40
2.0
 40
2.0
 40
2.0
 40
3.0
 40
3.0
 40
3.0
 40
4.0
 40
4.0
 40
4.0
 40
4.0
 10
414.2683494185166
 20
542.8516653648848
 30
0.0
 10
414.2676128018792
 20
542.8647693246039
 30
0.0
 10
414.2668761852437
 20
542.8778732843247
 30
0.0
 10
414.2645049189286
 20
542.8907064072109
 30
0.0
 10
414.2621365645282
 20
542.9035237710195
 30
0.0
 10
414.258137572684
 20
542.9160709627613
 30
0.0
 10
414.2531204317765
 20
542.9281977287756
 30
0.0
 10
414.2480943645495
 20
542.9403460703006
 30
0.0
 10
414.2420465221293
 20
542.9520724887516
 30
0.0
 10
414.2346429918961
 20
542.9628280273901
 30
0.0
 10
414.2272513800199
 20
542.9735662515358
 30
0.0
 10
414.2185084416523
 20
542.983336719234
 30
0.0
 10
414.209765503283
 20
542.9931071869368
 30
0.0
  0
LINE
  5
291
330
70
100
AcDbEntity
  8
0
 62
    18
420
        0
370
     9
100
AcDbLine
 10
414.1804549192074
 20
543.0224326721527
 30
0.0
 11
414.2097655033067
 21
542.9931071869532
 31
0.0
  0
LINE
  5
292
330
70
100
AcDbEntity
  8
0
 62
    18
420
        0
370
     9
100
AcDbLine
 10
269.6508962010085
 20
536.7927936188543
 30
0.0
 11
269.6548524593072
 21
536.7888597122528
 31
0.0
  0
LINE
  5
293
330
70
100
AcDbEntity
  8
0
 62
    18
420
        0
370
     9
100
AcDbLine
 10
269.9010345434071
 20
537.7506998650533
 30
0.0
 11
272.9010331725085
 21
537.7506998650533
 31
0.0
  0
SPLINE
  5
294
330
70
100
AcDbEntity
  8
0
 62
    18
420
        0
370
     9
100
AcDbSpline
210
0.0
220
0.0
230
1.0
 70
     8
 71
     3
 72
    17
 73
    13
 74
     0
 42
0.0000000001
 43
0.0000000001
 40
0.0
 40
0.0
 40
0.0
 40
0.0
 40
1.0
 40
1.0
 40
1.0
 40
2.0
 40
2.0
 40
2.0
 40
3.0
 40
3.0
 40
3.0
 40
4.0
 40
4.0
 40
4.0
 40
4.0
 10
269.9009674881654
 20
537.609258042953
 30
0.0
 10
269.9009779841763
 20
537.6193709637818
 30
0.0
 10
269.9009884801908
 20
537.629483884607
 30
0.0
 10
269.9009972904878
 20
537.6395968071447
 30
0.0
 10
269.9010073297231
 20
537.6511203699529
 30
0.0
 10
269.9010151801649
 20
537.662643934982
 30
0.0
 10
269.9010196422278
 20
537.6741675011134
 30
0.0
 10
269.901024481258
 20
537.6866646075405
 30
0.0
 10
269.9010253352062
 20
537.6991617152607
 30
0.0
 10
269.9010270928084
 20
537.711658822679
 30
0.0
 10
269.9010289230646
 20
537.724672503672
 30
0.0
 10
269.9010317332268
 20
537.7376861843413
 30
0.0
 10
269.9010345433908
 20
537.750699865005
 30
0.0
  0
SPLINE
  5
295
330
70
100
AcDbEntity
  8
0
 62
    18
420
        0
370
     9
100
AcDbSpline
210
0.0
220
0.0
230
1.0
 70
     8
 71
     3
 72
    17
 73
    13
 74
     0
 42
0.0000000001
 43
0.0000000001
 40
0.0
 40
0.0
 40
0.0
 40
0.0
 40
1.0
 40
1.0
 40
1.0
 40
2.0
 40
2.0
 40
2.0
 40
3.0
 40
3.0
 40
3.0
 40
4.0
 40
4.0
 40
4.0
 40
4.0
 10
269.9596110080438
 20
538.4946254364467
 30
0.0
 10
269.9508762169517
 20
538.4848314284372
 30
0.0
 10
269.9421414258623
 20
538.4750374204295
 30
0.0
 10
269.9347409700113
 20
538.464286672257
 30
0.0
 10
269.9273456501069
 20
538.4535433851506
 30
0.0
 10
269.9212828140171
 20
538.4418446853878
 30
0.0
 10
269.9162560795503
 20
538.4297159782873
 30
0.0
 10
269.9112322699239
 20
538.4175943283598
 30
0.0
 10
269.9072433565434
 20
538.4050431713567
 30
0.0
 10
269.9048790429788
 20
538.3922246567244
 30
0.0
 10
269.9025116917064
 20
538.3793896726692
 30
0.0
 10
269.9017731175481
 20
538.3662866435315
 30
0.0
 10
269.9010345433908
 20
538.3531836143947
 30
0.0
  0
LINE
  5
296
330
70
100
AcDbEntity
  8
0
 62
    18
420
        0
370
     9
100
AcDbLine
 10
270.3439492081079
 20
538.878956185953
 30
0.0
 11
269.9596110080083
 21
538.494625436454
 31
0.0
  0
SPLINE
  5
297
330
70
100
AcDbEntity
  8
0
 62
    18
420
        0
370
     9
100
AcDbSpline
210
0.0
220
0.0
230
1.0
 70
     8
 71
     3
 72
    17
 73
    13
 74
     0
 42
0.0000000001
 43
0.0000000001
 40
0.0
 40
0.0
 40
0.0
 40
0.0
 40
1.0
 40
1.0
 40
1.0
 40
2.0
 40
2.0
 40
2.0
 40
3.0
 40
3.0
 40
3.0
 40
4.0
 40
4.0
 40
4.0
 40
4.0
 10
270.3439492081361
 20
538.8789561859603
 30
0.0
 10
270.3537327055856
 20
538.8876871453885
 30
0.0
 10
270.3635162030368
 20
538.8964181048159
 30
0.0
 10
270.3742581700044
 20
538.9038113228298
 30
0.0
 10
270.3850024190178
 20
538.9112061114783
 30
0.0
 10
270.3967055448284
 20
538.9172625902647
 30
0.0
 10
270.4088363145547
 20
538.922288762712
 30
0.0
 10
270.4209685735204
 20
538.9273155521996
 30
0.0
 10
270.4335285814068
 20
538.9313117823558
 30
0.0
 10
270.4463574384408
 20
538.9336732498632
 30
0.0
 10
270.4591820703827
 20
538.9360339396398
 30
0.0
 10
270.4722753744136
 20
538.9367609433848
 30
0.0
 10
270.4853686784463
 20
538.9374879471288
 30
0.0
  0
LINE
  5
298
330
70
100
AcDbEntity
  8
0
 62
    18
420
        0
370
     9
100
AcDbLine
 10
272.316691586806
 20
538.9374879471533
 30
0.0
 11
270.4853686784063
 21
538.9374879471533
 31
0.0
  0
SPLINE
  5
299
330
70
100
AcDbEntity
  8
0
 62
    18
420
        0
370
     9
100
AcDbSpline
210
0.0
220
0.0
230
1.0
 70
     8
 71
     3
 72
    17
 73
    13
 74
     0
 42
0.0000000001
 43
0.0000000001
 40
0.0
 40
0.0
 40
0.0
 40
0.0
 40
1.0
 40
1.0
 40
1.0
 40
2.0
 40
2.0
 40
2.0
 40
3.0
 40
3.0
 40
3.0
 40
4.0
 40
4.0
 40
4.0
 40
4.0
 10
272.3166915868478
 20
538.9374879471288
 30
0.0
 10
272.3297874055152
 20
538.9367611586749
 30
0.0
 10
272.3428832241843
 20
538.9360343702183
 30
0.0
 10
272.3557102774339
 20
538.9336732498632
 30
0.0
 10
272.3685391296513
 20
538.9313117983638
 30
0.0
 10
272.3810991410573
 20
538.9273155565079
 30
0.0
 10
272.39323140132
 20
538.922288762712
 30
0.0
 10
272.4053621723415
 20
538.9172625859564
 30
0.0
 10
272.4170652972262
 20
538.9112061102468
 30
0.0
 10
272.4278095458704
 20
538.9038113228298
 30
0.0
 10
272.4385515124659
 20
538.8964181060482
 30
0.0
 10
272.4483350101018
 20
538.8876871460042
 30
0.0
 10
272.4581185077386
 20
538.8789561859603
 30
0.0
  0
LINE
  5
29A
330
70
100
AcDbEntity
  8
0
 62
    18
420
        0
370
     9
100
AcDbLine
 10
272.9010331725085
 20
538.4360340706543
 30
0.0
 11
272.4581185077059
 21
538.878956185953
 31
0.0
  0
LINE
  5
29B
330
70
100
AcDbEntity
  8
0
 62
    18
420
        0
370
     9
100
AcDbLine
 10
269.9010345434071
 20
538.353183614352
 30
0.0
 11
269.9010345434071
 21
537.7506998650533
 31
0.0
  0
LINE
  5
29C
330
70
100
AcDbEntity
  8
0
 62
    18
420
        0
370
     9
100
AcDbLine
 10
272.4585804437083
 20
538.878956185953
 30
0.0
 11
272.4581185077059
 21
538.878956185953
 31
0.0
  0
LINE
  5
29D
330
70
100
AcDbEntity
  8
0
 62
    18
420
        0
370
     9
100
AcDbLine
 10
272.4585804437083
 20
538.878956185953
 30
0.0
 11
272.9014951085082
 21
538.4360340706543
 31
0.0
  0
LINE
  5
29E
330
70
100
AcDbEntity
  8
0
 62
    18
420
        0
370
     9
100
AcDbLine
 10
272.316691586806
 20
538.9374879471533
 30
0.0
 11
272.3171609734072
 21
538.9374879471533
 31
0.0
  0
SPLINE
  5
29F
330
70
100
AcDbEntity
  8
0
 62
    18
420
        0
370
     9
100
AcDbSpline
210
0.0
220
0.0
230
1.0
 70
     8
 71
     3
 72
    17
 73
    13
 74
     0
 42
0.0000000001
 43
0.0000000001
 40
0.0
 40
0.0
 40
0.0
 40
0.0
 40
1.0
 40
1.0
 40
1.0
 40
2.0
 40
2.0
 40
2.0
 40
3.0
 40
3.0
 40
3.0
 40
4.0
 40
4.0
 40
4.0
 40
4.0
 10
272.4585804437356
 20
538.8789561859603
 30
0.0
 10
272.4487969609691
 20
538.8876871962557
 30
0.0
 10
272.4390134782006
 20
538.8964182065528
 30
0.0
 10
272.4282714818674
 20
538.9038113228298
 30
0.0
 10
272.417527203479
 20
538.9112060097213
 30
0.0
 10
272.4058240042213
 20
538.9172622340857
 30
0.0
 10
272.393693337317
 20
538.922288762712
 30
0.0
 10
272.3815633871636
 20
538.927314994341
 30
0.0
 10
272.3690060198778
 20
538.9313116519124
 30
0.0
 10
272.3561796640115
 20
538.9336732498632
 30
0.0
 10
272.3433527744583
 20
538.9360349460775
 30
0.0
 10
272.3302568739419
 20
538.9367614466027
 30
0.0
 10
272.3171609734254
 20
538.9374879471288
 30
0.0
  0
LINE
  5
2A0
330
70
100
AcDbEntity
  8
0
 62
    18
420
        0
370
     9
100
AcDbLine
 10
272.9014951085082
 20
538.2888105980518
 30
0.0
 11
273.150612721307
 21
538.2888105980518
 31
0.0
  0
LINE
  5
2A1
330
70
100
AcDbEntity
  8
0
 62
    18
420
        0
370
     9
100
AcDbLine
 10
414.5136970376078
 20
538.7115267387525
 30
0.0
 11
414.2676043604078
 21
538.7115267387525
 31
0.0
  0
LINE
  5
2A2
330
70
100
AcDbEntity
  8
0
 62
    18
420
        0
370
     9
100
AcDbLine
 10
270.1765644644074
 20
538.7115267387525
 30
0.0
 11
269.6508812998072
 21
538.7115267387525
 31
0.0
  0
LINE
  5
2A3
330
70
100
AcDbEntity
  8
0
 62
    18
420
        0
370
     9
100
AcDbLine
 10
271.6893303488068
 20
538.9374879471533
 30
0.0
 11
271.6894868110085
 21
540.4860166183525
 31
0.0
  0
LINE
  5
2A4
330
70
100
AcDbEntity
  8
0
 62
    18
420
        0
370
     9
100
AcDbLine
 10
271.6902691220075
 20
540.4860166183525
 30
0.0
 11
271.6902765726081
 21
538.9374879471533
 31
0.0
  0
LINE
  5
2A5
330
70
100
AcDbEntity
  8
0
 62
    18
420
        0
370
     9
100
AcDbLine
 10
271.6951567029082
 20
538.9374879471533
 30
0.0
 11
271.695164153407
 21
540.4860166183525
 31
0.0
  0
LINE
  5
2A6
330
70
100
AcDbEntity
  8
0
 62
    18
420
        0
370
     9
100
AcDbLine
 10
271.6959464644078
 20
540.4860166183525
 30
0.0
 11
271.6961029266077
 21
538.9374879471533
 31
0.0
  0
LINE
  5
2A7
330
70
100
AcDbEntity
  8
0
 62
    18
420
        0
370
     9
100
AcDbLine
 10
272.9169252609063
 20
538.2888105980518
 30
0.0
 11
272.9169252609063
 21
538.353183614352
 31
0.0
  0
LINE
  5
2A8
330
70
100
AcDbEntity
  8
0
 62
    18
420
        0
370
     9
100
AcDbLine
 10
272.9173946475075
 20
538.353183614352
 30
0.0
 11
272.9169252609063
 21
538.353183614352
 31
0.0
  0
LINE
  5
2A9
330
70
100
AcDbEntity
  8
0
 62
    18
420
        0
370
     9
100
AcDbLine
 10
272.9173946475075
 20
538.353183614352
 30
0.0
 11
272.9173946475075
 21
538.2888105980518
 31
0.0
  0
SPLINE
  5
2AA
330
70
100
AcDbEntity
  8
0
 62
    18
420
        0
370
     9
100
AcDbSpline
210
0.0
220
0.0
230
1.0
 70
     8
 71
     3
 72
    17
 73
    13
 74
     0
 42
0.0000000001
 43
0.0000000001
 40
0.0
 40
0.0
 40
0.0
 40
0.0
 40
1.0
 40
1.0
 40
1.0
 40
2.0
 40
2.0
 40
2.0
 40
3.0
 40
3.0
 40
3.0
 40
4.0
 40
4.0
 40
4.0
 40
4.0
 10
422.9227650259672
 20
538.1116655937658
 30
0.0
 10
422.9261788250842
 20
538.144443568949
 30
0.0
 10
422.9295926241957
 20
538.1772215441324
 30
0.0
 10
422.9410562013327
 20
538.2072714439855
 30
0.0
 10
422.9525970309041
 20
538.2375238485101
 30
0.0
 10
422.9722964981119
 20
538.2650112851033
 30
0.0
 10
422.9959446285902
 20
538.2884529701705
 30
0.0
 10
423.0194780762885
 20
538.3117809736241
 30
0.0
 10
423.0469219816477
 20
538.3311023705482
 30
0.0
 10
423.0770292972265
 20
538.3426335922695
 30
0.0
 10
423.1071415884362
 20
538.3541667196777
 30
0.0
 10
423.1399181702636
 20
538.357907096818
 30
0.0
 10
423.172694752091
 20
538.3616474739538
 30
0.0
  0
LINE
  5
2AB
330
70
100
AcDbEntity
  8
0
 62
    18
420
        0
370
     9
100
AcDbLine
 10
422.9238304590071
 20
530.6283024422518
 30
0.0
 11
422.9227650260072
 21
538.1116655937539
 31
0.0
  0
SPLINE
  5
2AC
330
70
100
AcDbEntity
  8
0
 62
    18
420
        0
370
     9
100
AcDbSpline
210
0.0
220
0.0
230
1.0
 70
     8
 71
     3
 72
    17
 73
    13
 74
     0
 42
0.0000000001
 43
0.0000000001
 40
0.0
 40
0.0
 40
0.0
 40
0.0
 40
1.0
 40
1.0
 40
1.0
 40
2.0
 40
2.0
 40
2.0
 40
3.0
 40
3.0
 40
3.0
 40
4.0
 40
4.0
 40
4.0
 40
4.0
 10
417.3228043411909
 20
538.1116655937658
 30
0.0
 10
417.3262151287381
 20
538.1444435849353
 30
0.0
 10
417.3296259162852
 20
538.1772215761056
 30
0.0
 10
417.3410880659758
 20
538.2072714439855
 30
0.0
 10
417.3526276244229
 20
538.2375242513635
 30
0.0
 10
417.3723276607506
 20
538.2650119626751
 30
0.0
 10
417.3959764932333
 20
538.2884529701705
 30
0.0
 10
417.419512134531
 20
538.311781781199
 30
0.0
 10
417.4469588619431
 20
538.3311025334442
 30
0.0
 10
417.4770686124502
 20
538.3426335922695
 30
0.0
 10
417.5071791699775
 20
538.3541649601602
 30
0.0
 10
417.5399528933557
 20
538.3579062170565
 30
0.0
 10
417.5727266167341
 20
538.3616474739538
 30
0.0
  0
LINE
  5
2AD
330
70
100
AcDbEntity
  8
0
 62
    18
420
        0
370
     9
100
AcDbLine
 10
417.3228043412055
 20
538.1116655937539
 30
0.0
 11
417.3239517306065
 21
530.0360706917517
 31
0.0
  0
LINE
  5
2AE
330
70
100
AcDbEntity
  8
0
 62
    18
420
        0
370
     9
100
AcDbLine
 10
422.9238304590071
 20
530.6283024422518
 30
0.0
 11
422.9066866730063
 21
530.6283024422518
 31
0.0
  0
SPLINE
  5
2AF
330
70
100
AcDbEntity
  8
0
 62
    18
420
        0
370
     9
100
AcDbSpline
210
0.0
220
0.0
230
1.0
 70
     8
 71
     3
 72
    17
 73
    13
 74
     0
 42
0.0000000001
 43
0.0000000001
 40
0.0
 40
0.0
 40
0.0
 40
0.0
 40
1.0
 40
1.0
 40
1.0
 40
2.0
 40
2.0
 40
2.0
 40
3.0
 40
3.0
 40
3.0
 40
4.0
 40
4.0
 40
4.0
 40
4.0
 10
424.7230115626989
 20
529.2946485153652
 30
0.0
 10
424.7230012593827
 20
529.2863634535515
 30
0.0
 10
424.7229909560683
 20
529.2780783917351
 30
0.0
 10
424.7229743097959
 20
529.2697933784957
 30
0.0
 10
424.7229619348582
 20
529.2636342503437
 30
0.0
 10
424.7229460544713
 20
529.2574751490356
 30
0.0
 10
424.722937056893
 20
529.2513159386134
 30
0.0
 10
424.7229315131916
 20
529.2475210487155
 30
0.0
 10
424.7229285823413
 20
529.2437261173927
 30
0.0
 10
424.7228923534094
 20
529.2399314514623
 30
0.0
 10
424.7228800234661
 20
529.2386399970009
 30
0.0
 10
424.7228638366977
 20
529.2373485732751
 30
0.0
 10
424.7228476499258
 20
529.2360571495509
 30
0.0
  0
LINE
  5
2B0
330
70
100
AcDbEntity
  8
0
 62
     8
420
  8421504
370
     9
100
AcDbLine
 10
273.1505829190082
 20
540.7565621010535
 30
0.0
 11
272.9945528601074
 21
540.4860166183525
 31
0.0
  0
LINE
  5
2B1
330
70
100
AcDbEntity
  8
0
 62
     8
420
  8421504
370
     9
100
AcDbLine
 10
269.8082897161075
 20
540.4860166183525
 30
0.0
 11
269.6508589481073
 21
540.7584098450533
 31
0.0
  0
LINE
  5
2B2
330
70
100
AcDbEntity
  8
0
 62
     8
420
  8421504
370
     9
100
AcDbLine
 10
411.2667638157072
 20
538.871386396052
 30
0.0
 11
410.8544412349074
 21
538.871386396052
 31
0.0
  0
LINE
  5
2B3
330
70
100
AcDbEntity
  8
0
 62
     8
420
  8421504
370
     9
100
AcDbLine
 10
273.1506052707064
 20
538.871386396052
 30
0.0
 11
272.4875855540085
 21
538.871386396052
 31
0.0
  0
LINE
  5
2B4
330
70
100
AcDbEntity
  8
0
 62
     8
420
  8421504
370
     9
100
AcDbLine
 10
424.5718020295062
 20
547.0465210548527
 30
0.0
 11
424.5748567675073
 21
547.0465210548527
 31
0.0
  0
LINE
  5
2B5
330
70
100
AcDbEntity
  8
0
 62
    18
420
        0
370
     9
100
AcDbLine
 10
372.0926392172078
 20
293.9249136507533
 30
0.0
 11
372.0926392172078
 21
439.8249247133535
 31
0.0
  0
LINE
  5
2B6
330
70
100
AcDbEntity
  8
0
 62
    18
420
        0
370
     9
100
AcDbLine
 10
312.0926386957072
 20
439.8249247133535
 30
0.0
 11
312.0926386957072
 21
293.9249136507533
 31
0.0
  0
LINE
  5
2B7
330
70
100
AcDbEntity
  8
0
 62
    18
420
        0
370
     9
100
AcDbLine
 10
343.8926386927087
 20
439.8249247133535
 30
0.0
 11
343.8926386927087
 21
475.9364285528526
 31
0.0
  0
LINE
  5
2B8
330
70
100
AcDbEntity
  8
0
 62
    18
420
        0
370
     9
100
AcDbLine
 10
340.2926387546068
 20
477.3114183008519
 30
0.0
 11
340.2926387546068
 21
439.8249247133535
 31
0.0
  0
LINE
  5
2B9
330
70
100
AcDbEntity
  8
0
 62
    18
420
        0
370
     9
100
AcDbLine
 10
317.7893209551076
 20
439.8249247133535
 30
0.0
 11
312.0926386957072
 21
439.8249247133535
 31
0.0
  0
LINE
  5
2BA
330
70
100
AcDbEntity
  8
0
 62
    18
420
        0
370
     9
100
AcDbLine
 10
372.0926392172078
 20
439.8249247133535
 30
0.0
 11
317.7893209551076
 21
439.8249247133535
 31
0.0
  0
LINE
  5
2BB
330
70
100
AcDbEntity
  8
0
 62
    18
420
        0
370
     9
100
AcDbLine
 10
317.7893209551076
 20
293.9249136507533
 30
0.0
 11
372.0926392172078
 21
293.9249136507533
 31
0.0
  0
LINE
  5
2BC
330
70
100
AcDbEntity
  8
0
 62
    18
420
        0
370
     9
100
AcDbLine
 10
312.0926386957072
 20
293.9249136507533
 30
0.0
 11
317.7893209551076
 21
293.9249136507533
 31
0.0
  0
LINE
  5
2BD
330
70
100
AcDbEntity
  8
0
  6
AI-Linetype-1
 62
    18
420
        0
370
     9
100
AcDbLine
 10
347.0676386421055
 20
476.623916020052
 30
0.0
 11
346.5801386421081
 21
478.623916020053
 31
0.0
  0
LINE
  5
2BF
330
70
100
AcDbEntity
  8
0
  6
AI-Linetype-2
 62
    18
420
        0
370
     9
100
AcDbLine
 10
346.5801386421081
 20
478.623916020053
 30
0.0
 11
342.5801386421081
 21
474.623916020053
 31
0.0
  0
LINE
  5
2C1
330
70
100
AcDbEntity
  8
0
  6
AI-Linetype-3
 62
    18
420
        0
370
     9
100
AcDbLine
 10
342.5801386421081
 20
474.623916020053
 30
0.0
 11
341.6051386421059
 21
478.623916020053
 31
0.0
  0
LINE
  5
2C3
330
70
100
AcDbEntity
  8
0
  6
AI-Linetype-4
 62
    18
420
        0
370
     9
100
AcDbLine
 10
341.6051386421059
 20
478.623916020053
 30
0.0
 11
337.6051386421059
 21
474.623916020053
 31
0.0
  0
LINE
  5
2C5
330
70
100
AcDbEntity
  8
0
  6
AI-Linetype-5
 62
    18
420
        0
370
     9
100
AcDbLine
 10
337.6051386421059
 20
474.623916020053
 30
0.0
 11
337.1176386421066
 21
476.623916020052
 31
0.0
  0
LINE
  5
2C7
330
70
100
AcDbEntity
  8
0
  6
AI-Linetype-6
 62
    18
420
        0
370
     9
100
AcDbLine
 10
347.0676386421055
 20
486.623916020053
 30
0.0
 11
346.5801386421081
 21
488.6239160200521
 31
0.0
  0
LINE
  5
2C9
330
70
100
AcDbEntity
  8
0
  6
AI-Linetype-7
 62
    18
420
        0
370
     9
100
AcDbLine
 10
346.5801386421081
 20
488.6239160200521
 30
0.0
 11
342.5801386421081
 21
484.6239160200521
 31
0.0
  0
LINE
  5
2CB
330
70
100
AcDbEntity
  8
0
  6
AI-Linetype-8
 62
    18
420
        0
370
     9
100
AcDbLine
 10
342.5801386421081
 20
484.6239160200521
 30
0.0
 11
341.6051386421059
 21
488.6239160200521
 31
0.0
  0
LINE
  5
2CD
330
70
100
AcDbEntity
  8
0
  6
AI-Linetype-9
 62
    18
420
        0
370
     9
100
AcDbLine
 10
341.6051386421059
 20
488.6239160200521
 30
0.0
 11
337.6051386421059
 21
484.6239160200521
 31
0.0
  0
LINE
  5
2CF
330
70
100
AcDbEntity
  8
0
  6
AI-Linetype-10
 62
    18
420
        0
370
     9
100
AcDbLine
 10
337.6051386421059
 20
484.6239160200521
 30
0.0
 11
337.1176386421066
 21
486.623916020053
 31
0.0
  0
LINE
  5
2D1
330
70
100
AcDbEntity
  8
0
 62
    18
420
        0
370
     9
100
AcDbLine
 10
430.5729651091168
 20
529.2360571495301
 30
0.0
 11
459.1589491521172
 21
529.2360571495301
 31
0.0
  0
LINE
  5
2D2
330
70
100
AcDbEntity
  8
0
 62
    18
420
        0
370
     9
100
AcDbLine
 10
430.0745548291179
 20
547.3360169039287
 30
0.0
 11
459.1589491521172
 21
547.3360169039287
 31
0.0
  0
LINE
  5
2D3
330
70
100
AcDbEntity
  8
0
 62
    18
420
        0
370
     9
100
AcDbLine
 10
458.1589491521172
 20
529.2360571495301
 30
0.0
 11
458.1589491521172
 21
547.3360169039287
 31
0.0
  0
LINE
  5
2D4
330
70
100
AcDbEntity
  8
0
 62
    18
420
        0
370
     9
100
AcDbLine
 10
425.1558078216167
 20
552.1360169059307
 30
0.0
 11
425.1558078216167
 21
573.5251512500317
 31
0.0
  0
LINE
  5
2D5
330
70
100
AcDbEntity
  8
0
 62
    18
420
        0
370
     9
100
AcDbLine
 10
247.8084977830185
 20
552.1360169059307
 30
0.0
 11
247.8084977830185
 21
573.5251512500317
 31
0.0
  0
LINE
  5
2D6
330
70
100
AcDbEntity
  8
0
 62
    18
420
        0
370
     9
100
AcDbLine
 10
425.1558078216167
 20
572.5251512500317
 30
0.0
 11
247.8084977830185
 21
572.5251512500317
 31
0.0
  0
MTEXT
  5
2D7
330
70
100
AcDbEntity
  8
0
100
AcDbMText
 10
324.0609741210938
 20
575.4747924804687
 30
0.0
 40
0.2
 41
0.0
 46
0.0
 71
     7
 72
     1
  1
\C18;\c0;\FMyriad Pro|b0|i0|c1;\H4.248000;\W1.000000;178mm / 7.01in
 73
     1
 44
1.0
  0
LINE
  5
2D8
330
70
100
AcDbEntity
  8
0
 62
    18
420
        0
370
     9
100
AcDbLine
 10
252.4584916794374
 20
571.8251543017895
 30
0.0
 11
247.8084977830185
 21
572.5251665092364
 31
0.0
  0
LINE
  5
2D9
330
70
100
AcDbEntity
  8
0
 62
    18
420
        0
370
     9
100
AcDbLine
 10
252.4584916795648
 20
573.2251481982712
 30
0.0
 11
252.4584916794374
 21
571.8251543017895
 31
0.0
  0
LINE
  5
2DA
330
70
100
AcDbEntity
  8
0
 62
    18
420
        0
370
     9
100
AcDbLine
 10
247.8084977830185
 20
572.5251665092364
 30
0.0
 11
252.4584916795648
 21
573.2251481982712
 31
0.0
  0
LINE
  5
2DB
330
70
100
AcDbEntity
  8
0
 62
    18
420
        0
370
     9
100
AcDbLine
 10
420.5058139251341
 20
573.2251481982712
 30
0.0
 11
425.1558078216167
 21
572.5251359912418
 31
0.0
  0
LINE
  5
2DC
330
70
100
AcDbEntity
  8
0
 62
    18
420
        0
370
     9
100
AcDbLine
 10
420.5058139251341
 20
571.8251543017895
 30
0.0
 11
420.5058139251341
 21
573.2251481982712
 31
0.0
  0
LINE
  5
2DD
330
70
100
AcDbEntity
  8
0
 62
    18
420
        0
370
     9
100
AcDbLine
 10
425.1558078216167
 20
572.5251359912418
 30
0.0
 11
420.5058139251341
 21
571.8251543017895
 31
0.0
  0
LINE
  5
2DE
330
70
100
AcDbEntity
  8
0
 62
    18
420
        0
370
     9
100
AcDbLine
 10
457.458952203875
 20
542.5494147181271
 30
0.0
 11
458.1589644119503
 21
547.1994086144559
 31
0.0
  0
LINE
  5
2DF
330
70
100
AcDbEntity
  8
0
 62
    18
420
        0
370
     9
100
AcDbLine
 10
458.8589461003611
 20
542.5494147178124
 30
0.0
 11
457.458952203875
 21
542.5494147181271
 31
0.0
  0
LINE
  5
2E0
330
70
100
AcDbEntity
  8
0
 62
    18
420
        0
370
     9
100
AcDbLine
 10
458.1589644119503
 20
547.1994086144559
 30
0.0
 11
458.8589461003611
 21
542.5494147178124
 31
0.0
  0
LINE
  5
2E1
330
70
100
AcDbEntity
  8
0
 62
    18
420
        0
370
     9
100
AcDbLine
 10
458.8589613601925
 20
533.9375309551587
 30
0.0
 11
458.1589491516988
 21
529.2875370588917
 31
0.0
  0
LINE
  5
2E2
330
70
100
AcDbEntity
  8
0
 62
    18
420
        0
370
     9
100
AcDbLine
 10
457.4589674637081
 20
533.937530955598
 30
0.0
 11
458.8589613601925
 21
533.9375309551587
 31
0.0
  0
LINE
  5
2E3
330
70
100
AcDbEntity
  8
0
 62
    18
420
        0
370
     9
100
AcDbLine
 10
458.1589491516988
 20
529.2875370588917
 30
0.0
 11
457.4589674637081
 21
533.937530955598
 31
0.0
  0
MTEXT
  5
2E4
330
70
100
AcDbEntity
  8
0
100
AcDbMText
 10
465.5563964843204
 20
520.34765625006
 30
0.0
 40
0.2
 41
0.0
 46
0.0
 71
     7
 72
     1
  1
\C18;\c0;\FMyriad Pro|b0|i0|c1;\H4.248000;\W1.000000;18mm / 0.71in
 11
-0.000000000000007
 21
1.0
 31
0.0
 73
     1
 44
1.0
  0
LINE
  5
2E5
330
70
100
AcDbEntity
  8
0
 62
    18
420
        0
370
     9
100
AcDbLine
 10
375.7710335338052
 20
293.9412620928215
 30
0.0
 11
415.9874211997267
 21
293.9412620919193
 31
0.0
  0
LINE
  5
2E6
330
70
100
AcDbEntity
  8
0
 62
    18
420
        0
370
     9
100
AcDbLine
 10
375.7710335370794
 20
439.8412620927993
 30
0.0
 11
415.987421202999
 21
439.8412620918925
 31
0.0
  0
LINE
  5
2E7
330
70
100
AcDbEntity
  8
0
 62
    18
420
        0
370
     9
100
AcDbLine
 10
414.9874211997085
 20
293.9412620919429
 30
0.0
 11
414.9874212029827
 21
439.841262091918
 31
0.0
  0
MTEXT
  5
2E8
330
70
100
AcDbEntity
  8
0
100
AcDbMText
 10
413.2682496889264
 20
348.6865232441742
 30
0.0
 40
0.2
 41
0.0
 46
0.0
 71
     7
 72
     1
  1
\C18;\c0;\FMyriad Pro|b0|i0|c1;\H4.248000;\W1.000000;146mm / 5.74in
 11
0.0000000000224483
 21
1.0
 31
0.0
 73
     1
 44
1.0
  0
LINE
  5
2E9
330
70
100
AcDbEntity
  8
0
 62
    18
420
        0
370
     9
100
AcDbLine
 10
372.0926386963292
 20
289.4686848268175
 30
0.0
 11
372.0926386957162
 21
262.2772007964449
 31
0.0
  0
LINE
  5
2EA
330
70
100
AcDbEntity
  8
0
 62
    18
420
        0
370
     9
100
AcDbLine
 10
312.0926386963183
 20
289.4686848281635
 30
0.0
 11
312.0926386957072
 21
262.277200797791
 31
0.0
  0
LINE
  5
2EB
330
70
100
AcDbEntity
  8
0
 62
    18
420
        0
370
     9
100
AcDbLine
 10
372.0926386957399
 20
263.277200796465
 30
0.0
 11
312.092638695729
 21
263.277200797811
 31
0.0
  0
MTEXT
  5
2EC
330
70
100
AcDbEntity
  8
0
100
AcDbMText
 10
322.4861145019531
 20
265.0505065917969
 30
0.0
 40
0.2
 41
0.0
 46
0.0
 71
     7
 72
     1
  1
\C18;\c0;\FMyriad Pro|b0|i0|c1;\H4.248000;\W1.000000;Ø60mm / 2.36in
 73
     1
 44
1.0
  0
LINE
  5
2ED
330
70
100
AcDbEntity
  8
0
 62
   250
420
  1907995
370
     9
100
AcDbLine
 10
414.280292842508
 20
435.1743530202666
 30
0.0
 11
414.9874212029827
 21
439.841262091918
 31
0.0
  0
LINE
  5
2EE
330
70
100
AcDbEntity
  8
0
 62
   250
420
  1907995
370
     9
100
AcDbLine
 10
415.6945064048777
 20
435.174353020232
 30
0.0
 11
414.280292842508
 21
435.1743530202666
 31
0.0
  0
LINE
  5
2EF
330
70
100
AcDbEntity
  8
0
 62
   250
420
  1907995
370
     9
100
AcDbLine
 10
414.9874212029827
 20
439.841262091918
 30
0.0
 11
415.6945064048777
 21
435.174353020232
 31
0.0
  0
LINE
  5
2F0
330
70
100
AcDbEntity
  8
0
 62
   250
420
  1907995
370
     9
100
AcDbLine
 10
367.4257296241813
 20
263.9843291575707
 30
0.0
 11
372.0926386957399
 21
263.277200796465
 31
0.0
  0
LINE
  5
2F1
330
70
100
AcDbEntity
  8
0
 62
   250
420
  1907995
370
     9
100
AcDbLine
 10
367.425729623963
 20
262.5701155951974
 30
0.0
 11
367.4257296241813
 21
263.9843291575707
 31
0.0
  0
LINE
  5
2F2
330
70
100
AcDbEntity
  8
0
 62
   250
420
  1907995
370
     9
100
AcDbLine
 10
372.0926386957399
 20
263.277200796465
 30
0.0
 11
367.425729623963
 21
262.5701155951974
 31
0.0
  0
LINE
  5
2F3
330
70
100
AcDbEntity
  8
0
 62
   250
420
  1907995
370
     9
100
AcDbLine
 10
316.7595477673494
 20
262.5700724371236
 30
0.0
 11
312.092638695729
 21
263.277200797811
 31
0.0
  0
LINE
  5
2F4
330
70
100
AcDbEntity
  8
0
 62
   250
420
  1907995
370
     9
100
AcDbLine
 10
316.7595477674477
 20
263.9842859994969
 30
0.0
 11
316.7595477673494
 21
262.5700724371236
 31
0.0
  0
LINE
  5
2F5
330
70
100
AcDbEntity
  8
0
 62
   250
420
  1907995
370
     9
100
AcDbLine
 10
312.092638695729
 20
263.277200797811
 30
0.0
 11
316.7595477674477
 21
263.9842859994969
 31
0.0
  0
LINE
  5
2F6
330
70
100
AcDbEntity
  8
0
 62
   250
420
  1907995
370
     9
100
AcDbLine
 10
415.694549560605
 20
298.6081711635307
 30
0.0
 11
414.9874211997085
 21
293.9412620919429
 31
0.0
  0
LINE
  5
2F7
330
70
100
AcDbEntity
  8
0
 62
   250
420
  1907995
370
     9
100
AcDbLine
 10
414.2803359982299
 20
298.6081711636889
 30
0.0
 11
415.694549560605
 21
298.6081711635307
 31
0.0
  0
LINE
  5
2F8
330
70
100
AcDbEntity
  8
0
 62
   250
420
  1907995
370
     9
100
AcDbLine
 10
414.9874211997085
 20
293.9412620919429
 30
0.0
 11
414.2803359982299
 21
298.6081711636889
 31
0.0
  0
LINE
  5
2F9
330
70
100
AcDbEntity
  8
0
 62
    18
420
        0
370
     9
100
AcDbLine
 10
414.9807615144454
 20
439.841262091918
 30
0.0
 11
414.9807615144454
 21
529.1774657837513
 31
0.0
  0
LINE
  5
2FA
330
70
100
AcDbEntity
  8
0
 62
    18
420
        0
370
     9
100
AcDbLine
 10
414.9807615144454
 20
529.1774657837513
 30
0.0
 11
414.9807615144454
 21
522.8274657837491
 31
0.0
  0
LINE
  5
2FB
330
70
100
AcDbEntity
  8
0
 62
    18
420
        0
370
     9
100
AcDbLine
 10
414.2807645662032
 20
524.5274718874234
 30
0.0
 11
414.9807767742786
 21
529.1774657837513
 31
0.0
  0
LINE
  5
2FC
330
70
100
AcDbEntity
  8
0
 62
    18
420
        0
370
     9
100
AcDbLine
 10
415.6807584626876
 20
524.527471887105
 30
0.0
 11
414.2807645662032
 21
524.5274718874234
 31
0.0
  0
LINE
  5
2FD
330
70
100
AcDbEntity
  8
0
 62
    18
420
        0
370
     9
100
AcDbLine
 10
414.9807767742786
 20
529.1774657837513
 30
0.0
 11
415.6807584626876
 21
524.527471887105
 31
0.0
  0
LINE
  5
2FE
330
70
100
AcDbEntity
  8
0
 62
    18
420
        0
370
     9
100
AcDbLine
 10
415.6874334114763
 20
444.4912559881804
 30
0.0
 11
414.9874212029827
 21
439.841262091918
 31
0.0
  0
LINE
  5
2FF
330
70
100
AcDbEntity
  8
0
 62
    18
420
        0
370
     9
100
AcDbLine
 10
414.2874395149902
 20
444.4912559886197
 30
0.0
 11
415.6874334114763
 21
444.4912559881804
 31
0.0
  0
LINE
  5
300
330
70
100
AcDbEntity
  8
0
 62
    18
420
        0
370
     9
100
AcDbLine
 10
414.9874212029827
 20
439.841262091918
 30
0.0
 11
414.2874395149902
 21
444.4912559886197
 31
0.0
  0
MTEXT
  5
301
330
70
100
AcDbEntity
  8
0
100
AcDbMText
 10
413.1476745604922
 20
462.49902343756
 30
0.0
 40
0.2
 41
0.0
 46
0.0
 71
     7
 72
     1
  1
\C18;\c0;\FMyriad Pro|b0|i0|c1;\H4.248000;\W1.000000;1000mm / 39.37in
 11
-0.000000000000007
 21
1.0
 31
0.0
 73
     1
 44
1.0
  0
ENDSEC
  0
SECTION
  2
OBJECTS
  0
DICTIONARY
  5
C
330
0
100
AcDbDictionary
281
     1
  3
ACAD_COLOR
350
63
  3
ACAD_DETAILVIEWSTYLE
350
6A
  3
ACAD_GROUP
350
D
  3
ACAD_LAYOUT
350
62
  3
ACAD_MATERIAL
350
10
  3
ACAD_MLEADERSTYLE
350
66
  3
ACAD_MLINESTYLE
350
5F
  3
ACAD_PLOTSETTINGS
350
61
  3
ACAD_PLOTSTYLENAME
350
E
  3
ACAD_SCALELIST
350
42
  3
ACAD_SECTIONVIEWSTYLE
350
68
  3
ACAD_TABLESTYLE
350
64
  3
ACAD_VISUALSTYLE
350
29
  3
ACDB_RECOMPOSE_DATA
350
30A
  3
AcDbVariableDictionary
350
302
  0
DICTIONARY
  5
63
102
{ACAD_REACTORS
330
C
102
}
330
C
100
AcDbDictionary
281
     1
  0
DICTIONARY
  5
6A
102
{ACAD_REACTORS
330
C
102
}
330
C
100
AcDbDictionary
281
     1
  3
Imperial24
350
6B
  0
DICTIONARY
  5
D
102
{ACAD_REACTORS
330
C
102
}
330
C
100
AcDbDictionary
281
     1
  0
DICTIONARY
  5
62
102
{ACAD_REACTORS
330
C
102
}
330
C
100
AcDbDictionary
281
     1
  3
Layout1
350
6F
  3
Layout2
350
77
  3
Model
350
73
  0
DICTIONARY
  5
10
102
{ACAD_REACTORS
330
C
102
}
330
C
100
AcDbDictionary
281
     1
  3
ByBlock
350
19
  3
ByLayer
350
11
  3
Global
350
21
  0
DICTIONARY
  5
66
102
{ACAD_REACTORS
330
C
102
}
330
C
100
AcDbDictionary
281
     1
  3
Standard
350
67
  0
DICTIONARY
  5
5F
102
{ACAD_REACTORS
330
C
102
}
330
C
100
AcDbDictionary
281
     1
  3
Standard
350
60
  0
DICTIONARY
  5
61
102
{ACAD_REACTORS
330
C
102
}
330
C
100
AcDbDictionary
281
     1
  0
ACDBDICTIONARYWDFLT
  5
E
102
{ACAD_REACTORS
330
C
102
}
330
C
100
AcDbDictionary
281
     1
  3
Normal
350
F
100
AcDbDictionaryWithDefault
340
F
  0
DICTIONARY
  5
42
102
{ACAD_REACTORS
330
C
102
}
330
C
100
AcDbDictionary
281
     1
  3
A0
350
43
  3
A1
350
44
  3
A2
350
45
  3
A3
350
46
  3
A4
350
47
  3
A5
350
48
  3
A6
350
49
  3
A7
350
4A
  3
A8
350
4B
  3
A9
350
4C
  3
B0
350
4D
  3
B1
350
4E
  3
B2
350
4F
  3
B3
350
50
  3
B4
350
51
  3
B5
350
52
  3
B6
350
53
  0
DICTIONARY
  5
68
102
{ACAD_REACTORS
330
C
102
}
330
C
100
AcDbDictionary
281
     1
  3
Imperial24
350
69
  0
DICTIONARY
  5
64
102
{ACAD_REACTORS
330
C
102
}
330
C
100
AcDbDictionary
281
     1
  3
Standard
350
65
  0
DICTIONARY
  5
29
102
{ACAD_REACTORS
330
C
102
}
330
C
100
AcDbDictionary
281
     1
  3
2dWireframe
350
2F
  3
Basic
350
2E
  3
Brighten
350
35
  3
ColorChange
350
39
  3
Conceptual
350
32
  3
Dim
350
34
  3
EdgeColorOff
350
41
  3
Facepattern
350
38
  3
Flat
350
2A
  3
FlatWithEdges
350
2B
  3
Gouraud
350
2C
  3
GouraudWithEdges
350
2D
  3
Hidden
350
31
  3
JitterOff
350
3F
  3
Linepattern
350
37
  3
OverhangOff
350
40
  3
Realistic
350
33
  3
Shaded
350
3E
  3
Shaded with edges
350
3D
  3
Shades of Gray
350
3A
  3
Sketchy
350
3B
  3
Thicken
350
36
  3
Wireframe
350
30
  3
X-Ray
350
3C
  0
XRECORD
  5
30A
102
{ACAD_REACTORS
330
C
102
}
330
C
100
AcDbXrecord
280
     1
 90
        1
330
65
  0
DICTIONARY
  5
302
102
{ACAD_REACTORS
330
C
102
}
330
C
100
AcDbDictionary
281
     1
  3
CANNOSCALE
350
307
  3
CMLEADERSTYLE
350
304
  3
CTABLESTYLE
350
303
  3
CVIEWDETAILSTYLE
350
305
  3
CVIEWSECTIONSTYLE
350
306
  0
ACDBDETAILVIEWSTYLE
  5
6B
102
{ACAD_REACTORS
330
6A
102
}
330
6A
100
AcDbModelDocViewStyle
 70
     0
  3
Imperial24
290
     1
300
Imperial24
 90
        0
100
AcDbDetailViewStyle
 70
     0
 71
     0
 90
        3
 71
     1
340
55
 62
   256
 40
0.24
340
0
 62
   256
 40
0.24
300

 40
0.36
280
     3
 71
     2
340
5D
 90
       25
 62
   256
 71
     3
340
55
 62
   256
 40
0.24
 90
        1
 40
0.75
 90
        1
300
%<\AcVar ViewType \f "%tc1">% %<\AcVar ViewDetailId>%\PSCALE %<\AcVar ViewScale \f "%sn">%
 71
     4
340
5D
 90
       25
 62
   256
340
5D
 90
       25
 62
   256
280
     0
  0
LAYOUT
  5
6F
102
{ACAD_REACTORS
330
62
102
}
330
62
100
AcDbPlotSettings
  1

  2

  4

  6

 40
0.0
 41
0.0
 42
0.0
 43
0.0
 44
0.0
 45
0.0
 46
0.0
 47
0.0
 48
0.0
 49
0.0
140
0.0
141
0.0
142
1.0
143
1.0
 70
   688
 72
     0
 73
     0
 74
     5
  7

 75
    16
147
1.0
 76
     0
 77
     2
 78
   300
148
0.0
149
0.0
100
AcDbLayout
  1
Layout1
 70
     1
 71
     1
 10
0.0
 20
0.0
 11
12.0
 21
9.0
 12
0.0
 22
0.0
 32
0.0
 14
0.0
 24
0.0
 34
0.0
 15
0.0
 25
0.0
 35
0.0
146
0.0
 13
0.0
 23
0.0
 33
0.0
 16
1.0
 26
0.0
 36
0.0
 17
0.0
 27
1.0
 37
0.0
 76
     0
330
6C
  0
LAYOUT
  5
77
102
{ACAD_REACTORS
330
62
102
}
330
62
100
AcDbPlotSettings
  1

  2

  4

  6

 40
0.0
 41
0.0
 42
0.0
 43
0.0
 44
0.0
 45
0.0
 46
0.0
 47
0.0
 48
0.0
 49
0.0
140
0.0
141
0.0
142
1.0
143
1.0
 70
   688
 72
     0
 73
     0
 74
     5
  7

 75
    16
147
1.0
 76
     0
 77
     2
 78
   300
148
0.0
149
0.0
100
AcDbLayout
  1
Layout2
 70
     1
 71
     2
 10
0.0
 20
0.0
 11
12.0
 21
9.0
 12
0.0
 22
0.0
 32
0.0
 14
0.0
 24
0.0
 34
0.0
 15
0.0
 25
0.0
 35
0.0
146
0.0
 13
0.0
 23
0.0
 33
0.0
 16
1.0
 26
0.0
 36
0.0
 17
0.0
 27
1.0
 37
0.0
 76
     0
330
74
  0
LAYOUT
  5
73
102
{ACAD_REACTORS
330
62
102
}
330
62
100
AcDbPlotSettings
  1

  2

  4

  6

 40
0.0
 41
0.0
 42
0.0
 43
0.0
 44
0.0
 45
0.0
 46
0.0
 47
0.0
 48
0.0
 49
0.0
140
0.0
141
0.0
142
1.0
143
1.0
 70
  1712
 72
     0
 73
     0
 74
     0
  7

 75
     0
147
1.0
 76
     0
 77
     2
 78
   300
148
0.0
149
0.0
100
AcDbLayout
  1
Model
 70
     1
 71
     0
 10
0.0
 20
0.0
 11
12.0
 21
9.0
 12
0.0
 22
0.0
 32
0.0
 14
0.0
 24
0.0
 34
0.0
 15
0.0
 25
0.0
 35
0.0
146
0.0
 13
0.0
 23
0.0
 33
0.0
 16
1.0
 26
0.0
 36
0.0
 17
0.0
 27
1.0
 37
0.0
 76
     0
330
70
  0
MATERIAL
  5
19
102
{ACAD_XDICTIONARY
360
1A
102
}
102
{ACAD_REACTORS
330
10
102
}
330
10
100
AcDbMaterial
  1
ByBlock
 72
     0
 43
0.0208333333333333
 43
0.0
 43
0.0
 43
0.0
 43
0.0
 43
0.0208333333333333
 43
0.0
 43
0.0
 43
0.0
 43
0.0
 43
1.0
 43
0.0
 43
0.0
 43
0.0
 43
0.0
 43
1.0
 77
     0
 47
0.0208333333333333
 47
0.0
 47
0.0
 47
0.0
 47
0.0
 47
0.0208333333333333
 47
0.0
 47
0.0
 47
0.0
 47
0.0
 47
1.0
 47
0.0
 47
0.0
 47
0.0
 47
0.0
 47
1.0
171
     0
 49
0.0208333333333333
 49
0.0
 49
0.0
 49
0.0
 49
0.0
 49
0.0208333333333333
 49
0.0
 49
0.0
 49
0.0
 49
0.0
 49
1.0
 49
0.0
 49
0.0
 49
0.0
 49
0.0
 49
1.0
175
     0
142
0.0208333333333333
142
0.0
142
0.0
142
0.0
142
0.0
142
0.0208333333333333
142
0.0
142
0.0
142
0.0
142
0.0
142
1.0
142
0.0
142
0.0
142
0.0
142
0.0
142
1.0
179
     0
144
0.0208333333333333
144
0.0
144
0.0
144
0.0
144
0.0
144
0.0208333333333333
144
0.0
144
0.0
144
0.0
144
0.0
144
1.0
144
0.0
144
0.0
144
0.0
144
0.0
144
1.0
147
0.0208333333333333
147
0.0
147
0.0
147
0.0
147
0.0
147
0.0208333333333333
147
0.0
147
0.0
147
0.0
147
0.0
147
1.0
147
0.0
147
0.0
147
0.0
147
0.0
147
1.0
  0
MATERIAL
  5
11
102
{ACAD_XDICTIONARY
360
12
102
}
102
{ACAD_REACTORS
330
10
102
}
330
10
100
AcDbMaterial
  1
ByLayer
 72
     0
 43
0.0208333333333333
 43
0.0
 43
0.0
 43
0.0
 43
0.0
 43
0.0208333333333333
 43
0.0
 43
0.0
 43
0.0
 43
0.0
 43
1.0
 43
0.0
 43
0.0
 43
0.0
 43
0.0
 43
1.0
 77
     0
 47
0.0208333333333333
 47
0.0
 47
0.0
 47
0.0
 47
0.0
 47
0.0208333333333333
 47
0.0
 47
0.0
 47
0.0
 47
0.0
 47
1.0
 47
0.0
 47
0.0
 47
0.0
 47
0.0
 47
1.0
171
     0
 49
0.0208333333333333
 49
0.0
 49
0.0
 49
0.0
 49
0.0
 49
0.0208333333333333
 49
0.0
 49
0.0
 49
0.0
 49
0.0
 49
1.0
 49
0.0
 49
0.0
 49
0.0
 49
0.0
 49
1.0
175
     0
142
0.0208333333333333
142
0.0
142
0.0
142
0.0
142
0.0
142
0.0208333333333333
142
0.0
142
0.0
142
0.0
142
0.0
142
1.0
142
0.0
142
0.0
142
0.0
142
0.0
142
1.0
179
     0
144
0.0208333333333333
144
0.0
144
0.0
144
0.0
144
0.0
144
0.0208333333333333
144
0.0
144
0.0
144
0.0
144
0.0
144
1.0
144
0.0
144
0.0
144
0.0
144
0.0
144
1.0
147
0.0208333333333333
147
0.0
147
0.0
147
0.0
147
0.0
147
0.0208333333333333
147
0.0
147
0.0
147
0.0
147
0.0
147
1.0
147
0.0
147
0.0
147
0.0
147
0.0
147
1.0
  0
MATERIAL
  5
21
102
{ACAD_XDICTIONARY
360
22
102
}
102
{ACAD_REACTORS
330
10
102
}
330
10
100
AcDbMaterial
  1
Global
 72
     0
 43
0.0208333333333333
 43
0.0
 43
0.0
 43
0.0
 43
0.0
 43
0.0208333333333333
 43
0.0
 43
0.0
 43
0.0
 43
0.0
 43
1.0
 43
0.0
 43
0.0
 43
0.0
 43
0.0
 43
1.0
 77
     0
 47
0.0208333333333333
 47
0.0
 47
0.0
 47
0.0
 47
0.0
 47
0.0208333333333333
 47
0.0
 47
0.0
 47
0.0
 47
0.0
 47
1.0
 47
0.0
 47
0.0
 47
0.0
 47
0.0
 47
1.0
171
     0
 49
0.0208333333333333
 49
0.0
 49
0.0
 49
0.0
 49
0.0
 49
0.0208333333333333
 49
0.0
 49
0.0
 49
0.0
 49
0.0
 49
1.0
 49
0.0
 49
0.0
 49
0.0
 49
0.0
 49
1.0
175
     0
142
0.0208333333333333
142
0.0
142
0.0
142
0.0
142
0.0
142
0.0208333333333333
142
0.0
142
0.0
142
0.0
142
0.0
142
1.0
142
0.0
142
0.0
142
0.0
142
0.0
142
1.0
179
     0
144
0.0208333333333333
144
0.0
144
0.0
144
0.0
144
0.0
144
0.0208333333333333
144
0.0
144
0.0
144
0.0
144
0.0
144
1.0
144
0.0
144
0.0
144
0.0
144
0.0
144
1.0
147
0.0208333333333333
147
0.0
147
0.0
147
0.0
147
0.0
147
0.0208333333333333
147
0.0
147
0.0
147
0.0
147
0.0
147
1.0
147
0.0
147
0.0
147
0.0
147
0.0
147
1.0
  0
MLEADERSTYLE
  5
67
102
{ACAD_REACTORS
330
66
102
}
330
66
100
AcDbMLeaderStyle
179
     2
170
     2
171
     1
172
     0
 90
        2
 40
0.0
 41
0.0
173
     1
 91
-1056964608
340
5B
 92
       -2
290
     1
 42
0.09
291
     1
 43
0.36
  3
Standard
 44
0.18
300

342
55
174
     1
178
     6
175
     1
176
     0
 93
-1056964608
 45
0.18
292
     0
297
     0
 46
0.18
 94
-1056964608
 47
1.0
 49
1.0
140
1.0
293
     1
141
0.0
294
     1
177
     0
142
1.0
295
     1
296
     0
143
0.125
271
     0
272
     9
273
     9
298
     1
  0
MLINESTYLE
  5
60
102
{ACAD_REACTORS
330
5F
102
}
330
5F
100
AcDbMlineStyle
  2
STANDARD
 70
     0
  3

 62
   256
 51
90.0
 52
90.0
 71
     2
 49
0.5
 62
   256
  6
BYLAYER
 49
-0.5
 62
   256
  6
BYLAYER
  0
ACDBPLACEHOLDER
  5
F
102
{ACAD_REACTORS
330
E
102
}
330
E
  0
SCALE
  5
43
102
{ACAD_REACTORS
330
42
102
}
330
42
100
AcDbScale
 70
     0
300
1:1
140
1.0
141
1.0
290
     1
  0
SCALE
  5
44
102
{ACAD_REACTORS
330
42
102
}
330
42
100
AcDbScale
 70
     0
300
1/128" = 1'-0"
140
0.0078125
141
12.0
290
     0
  0
SCALE
  5
45
102
{ACAD_REACTORS
330
42
102
}
330
42
100
AcDbScale
 70
     0
300
1/64" = 1'-0"
140
0.015625
141
12.0
290
     0
  0
SCALE
  5
46
102
{ACAD_REACTORS
330
42
102
}
330
42
100
AcDbScale
 70
     0
300
1/32" = 1'-0"
140
0.03125
141
12.0
290
     0
  0
SCALE
  5
47
102
{ACAD_REACTORS
330
42
102
}
330
42
100
AcDbScale
 70
     0
300
1/16" = 1'-0"
140
0.0625
141
12.0
290
     0
  0
SCALE
  5
48
102
{ACAD_REACTORS
330
42
102
}
330
42
100
AcDbScale
 70
     0
300
3/32" = 1'-0"
140
0.09375
141
12.0
290
     0
  0
SCALE
  5
49
102
{ACAD_REACTORS
330
42
102
}
330
42
100
AcDbScale
 70
     0
300
1/8" = 1'-0"
140
0.125
141
12.0
290
     0
  0
SCALE
  5
4A
102
{ACAD_REACTORS
330
42
102
}
330
42
100
AcDbScale
 70
     0
300
3/16" = 1'-0"
140
0.1875
141
12.0
290
     0
  0
SCALE
  5
4B
102
{ACAD_REACTORS
330
42
102
}
330
42
100
AcDbScale
 70
     0
300
1/4" = 1'-0"
140
0.25
141
12.0
290
     0
  0
SCALE
  5
4C
102
{ACAD_REACTORS
330
42
102
}
330
42
100
AcDbScale
 70
     0
300
3/8" = 1'-0"
140
0.375
141
12.0
290
     0
  0
SCALE
  5
4D
102
{ACAD_REACTORS
330
42
102
}
330
42
100
AcDbScale
 70
     0
300
1/2" = 1'-0"
140
0.5
141
12.0
290
     0
  0
SCALE
  5
4E
102
{ACAD_REACTORS
330
42
102
}
330
42
100
AcDbScale
 70
     0
300
3/4" = 1'-0"
140
0.75
141
12.0
290
     0
  0
SCALE
  5
4F
102
{ACAD_REACTORS
330
42
102
}
330
42
100
AcDbScale
 70
     0
300
1" = 1'-0"
140
1.0
141
12.0
290
     0
  0
SCALE
  5
50
102
{ACAD_REACTORS
330
42
102
}
330
42
100
AcDbScale
 70
     0
300
1-1/2" = 1'-0"
140
1.5
141
12.0
290
     0
  0
SCALE
  5
51
102
{ACAD_REACTORS
330
42
102
}
330
42
100
AcDbScale
 70
     0
300
3" = 1'-0"
140
3.0
141
12.0
290
     0
  0
SCALE
  5
52
102
{ACAD_REACTORS
330
42
102
}
330
42
100
AcDbScale
 70
     0
300
6" = 1'-0"
140
6.0
141
12.0
290
     0
  0
SCALE
  5
53
102
{ACAD_REACTORS
330
42
102
}
330
42
100
AcDbScale
 70
     0
300
1'-0" = 1'-0"
140
12.0
141
12.0
290
     0
  0
ACDBSECTIONVIEWSTYLE
  5
69
102
{ACAD_REACTORS
330
68
102
}
330
68
100
AcDbModelDocViewStyle
 70
     0
  3
Imperial24
290
     1
300
Imperial24
 90
        0
100
AcDbSectionViewStyle
 70
     0
 71
     0
 90
       78
 71
     1
340
55
 62
   256
 40
0.24
340
0
340
0
 62
   256
 40
0.24
300
I, O, Q, S, X, Z
 40
0.48
 90
        3
 40
0.18
 90
        1
 71
     2
340
5D
 90
       25
 62
   256
340
5D
 90
       50
 62
   256
 40
0.24
 40
0.0
 40
0.24
 71
     3
340
55
 62
   256
 40
0.24
 90
        1
 40
0.75
 90
        1
300
%<\AcVar ViewType \f "%tc1">% %<\AcVar ViewSectionStartId>%-%<\AcVar ViewSectionEndId>%\PSCALE %<\AcVar ViewScale \f "%sn">%
 71
     4
 62
   256
 62
   257
300
ANSI31
 40
1.0
 90
        0
290
     0
290
     0
 90
        6
 40
0.0
 40
1.570796326794896
 40
0.2617993877991494
 40
1.308996938995747
 40
-0.2617993877991494
 40
1.832595714594046
  0
TABLESTYLE
  5
65
102
{ACAD_XDICTIONARY
360
308
102
}
102
{ACAD_REACTORS
330
64
102
}
330
64
100
AcDbTableStyle
280
     0
  3
Standard
 70
     0
 71
     0
 40
0.06
 41
0.06
280
     0
281
     0
  7
Standard
140
0.18
170
     2
 62
     0
 63
     7
283
     0
 90
      512
 91
        0
  1

274
    -2
284
     1
 64
     0
275
    -2
285
     1
 65
     0
276
    -2
286
     1
 66
     0
277
    -2
287
     1
 67
     0
278
    -2
288
     1
 68
     0
279
    -2
289
     1
 69
     0
  7
Standard
140
0.25
170
     5
 62
     0
 63
     7
283
     0
 90
      512
 91
        0
  1

274
    -2
284
     1
 64
     0
275
    -2
285
     1
 65
     0
276
    -2
286
     1
 66
     0
277
    -2
287
     1
 67
     0
278
    -2
288
     1
 68
     0
279
    -2
289
     1
 69
     0
  7
Standard
140
0.18
170
     5
 62
     0
 63
     7
283
     0
 90
      512
 91
        0
  1

274
    -2
284
     1
 64
     0
275
    -2
285
     1
 65
     0
276
    -2
286
     1
 66
     0
277
    -2
287
     1
 67
     0
278
    -2
288
     1
 68
     0
279
    -2
289
     1
 69
     0
  0
VISUALSTYLE
  5
2F
102
{ACAD_REACTORS
330
29
102
}
330
29
100
AcDbVisualStyle
  2
2dWireframe
 70
     4
177
     3
291
     0
 70
    58
 90
        0
176
     1
 90
        2
176
     1
 90
        0
176
     1
 90
        0
176
     1
 40
0.6
176
     1
 40
30.0
176
     1
 62
     7
420
 16777215
176
     1
 90
        1
176
     1
 90
        4
176
     1
 62
     7
176
     1
 62
   257
176
     1
 90
        1
176
     1
 90
        1
176
     1
 40
1.0
176
     1
 90
        0
176
     1
 62
   257
176
     1
 40
1.0
176
     1
 90
        1
176
     1
 90
        6
176
     1
 90
        2
176
     1
 62
     7
176
     1
 90
        5
176
     1
 90
        0
176
     1
 90
        0
176
     1
290
     0
176
     1
 90
        1
176
     1
 40
0.0
176
     1
 90
        0
176
     1
290
     1
176
     1
290
     1
176
     1
290
     0
176
     1
290
     0
176
     1
290
     0
176
     1
290
     0
176
     1
290
     0
176
     1
290
     0
176
     1
290
     0
176
     1
 90
       50
176
     1
 40
0.0
176
     1
 40
1.0
176
     1
 90
        0
176
     1
 62
    18
420
        0
176
     1
 90
       50
176
     1
 90
        3
176
     1
 62
     5
420
      255
176
     1
290
     0
176
     1
 90
       50
176
     1
 90
       50
176
     1
 90
       50
176
     1
290
     0
176
     1
 90
       50
176
     1
 62
   256
176
     0
 40
1.0
176
     0
 90
        2
176
     1
  1
strokes_ogs.tif
176
     1
290
     0
176
     1
 40
1.0
176
     1
 40
1.0
176
     1
  0
VISUALSTYLE
  5
2E
102
{ACAD_REACTORS
330
29
102
}
330
29
100
AcDbVisualStyle
  2
Basic
 70
     7
177
     3
291
     1
 70
    58
 90
        1
176
     1
 90
        0
176
     1
 90
        1
176
     1
 90
        0
176
     1
 40
0.6
176
     1
 40
30.0
176
     1
 62
     7
420
 16777215
176
     1
 90
        0
176
     1
 90
        4
176
     1
 62
     7
176
     1
 62
   257
176
     1
 90
        1
176
     1
 90
        1
176
     1
 40
1.0
176
     1
 90
        8
176
     1
 62
     7
176
     1
 40
1.0
176
     1
 90
        1
176
     1
 90
        6
176
     1
 90
        2
176
     1
 62
     7
176
     1
 90
        5
176
     1
 90
        0
176
     1
 90
        0
176
     1
290
     0
176
     1
 90
        1
176
     1
 40
0.0
176
     1
 90
        0
176
     1
290
     0
176
     1
290
     1
176
     1
290
     1
176
     1
290
     0
176
     1
290
     0
176
     1
290
     0
176
     1
290
     0
176
     1
290
     0
176
     1
290
     0
176
     1
 90
       50
176
     1
 40
0.0
176
     1
 40
1.0
176
     1
 90
        0
176
     1
 62
    18
420
        0
176
     1
 90
       50
176
     1
 90
        3
176
     1
 62
     5
420
      255
176
     1
290
     0
176
     1
 90
       50
176
     1
 90
       50
176
     1
 90
       50
176
     1
290
     0
176
     1
 90
       50
176
     1
 62
   256
176
     0
 40
1.0
176
     0
 90
        2
176
     1
  1
strokes_ogs.tif
176
     1
290
     0
176
     1
 40
1.0
176
     1
 40
1.0
176
     1
  0
VISUALSTYLE
  5
35
102
{ACAD_REACTORS
330
29
102
}
330
29
100
AcDbVisualStyle
  2
Brighten
 70
    12
177
     3
291
     1
 70
    58
 90
        2
176
     1
 90
        2
176
     1
 90
        0
176
     1
 90
        0
176
     1
 40
0.6
176
     1
 40
30.0
176
     1
 62
     7
420
 16777215
176
     1
 90
        1
176
     1
 90
        4
176
     1
 62
     7
176
     1
 62
   257
176
     1
 90
        1
176
     1
 90
        1
176
     1
 40
1.0
176
     1
 90
        8
176
     1
 62
     7
176
     1
 40
1.0
176
     1
 90
        1
176
     1
 90
        6
176
     1
 90
        2
176
     1
 62
     7
176
     1
 90
        5
176
     1
 90
        0
176
     1
 90
        0
176
     1
290
     0
176
     1
 90
        1
176
     1
 40
50.0
176
     1
 90
        0
176
     1
290
     0
176
     1
290
     1
176
     1
290
     1
176
     1
290
     0
176
     1
290
     0
176
     1
290
     0
176
     1
290
     0
176
     1
290
     0
176
     1
290
     0
176
     1
 90
       50
176
     1
 40
0.0
176
     1
 40
1.0
176
     1
 90
        0
176
     1
 62
    18
420
        0
176
     1
 90
       50
176
     1
 90
        3
176
     1
 62
     5
420
      255
176
     1
290
     0
176
     1
 90
       50
176
     1
 90
       50
176
     1
 90
       50
176
     1
290
     0
176
     1
 90
       50
176
     1
 62
   256
176
     0
 40
1.0
176
     0
 90
        2
176
     1
  1
strokes_ogs.tif
176
     1
290
     0
176
     1
 40
1.0
176
     1
 40
1.0
176
     1
  0
VISUALSTYLE
  5
39
102
{ACAD_REACTORS
330
29
102
}
330
29
100
AcDbVisualStyle
  2
ColorChange
 70
    16
177
     3
291
     1
 70
    58
 90
        2
176
     1
 90
        2
176
     1
 90
        3
176
     1
 90
        0
176
     1
 40
0.6
176
     1
 40
30.0
176
     1
 62
     8
420
  8421504
176
     1
 90
        1
176
     1
 90
        4
176
     1
 62
     7
176
     1
 62
   257
176
     1
 90
        1
176
     1
 90
        1
176
     1
 40
1.0
176
     1
 90
        8
176
     1
 62
     8
420
  8421504
176
     1
 40
1.0
176
     1
 90
        1
176
     1
 90
        6
176
     1
 90
        2
176
     1
 62
     7
176
     1
 90
        5
176
     1
 90
        0
176
     1
 90
        0
176
     1
290
     0
176
     1
 90
        1
176
     1
 40
0.0
176
     1
 90
        0
176
     1
290
     0
176
     1
290
     1
176
     1
290
     1
176
     1
290
     0
176
     1
290
     0
176
     1
290
     0
176
     1
290
     0
176
     1
290
     0
176
     1
290
     0
176
     1
 90
       50
176
     1
 40
0.0
176
     1
 40
1.0
176
     1
 90
        0
176
     1
 62
    18
420
        0
176
     1
 90
       50
176
     1
 90
        3
176
     1
 62
     5
420
      255
176
     1
290
     0
176
     1
 90
       50
176
     1
 90
       50
176
     1
 90
       50
176
     1
290
     0
176
     1
 90
       50
176
     1
 62
   256
176
     0
 40
1.0
176
     0
 90
        2
176
     1
  1
strokes_ogs.tif
176
     1
290
     0
176
     1
 40
1.0
176
     1
 40
1.0
176
     1
  0
VISUALSTYLE
  5
32
102
{ACAD_REACTORS
330
29
102
}
330
29
100
AcDbVisualStyle
  2
Conceptual
 70
     9
177
     3
291
     0
 70
    58
 90
        3
176
     1
 90
        2
176
     1
 90
        0
176
     1
 90
        0
176
     1
 40
0.6
176
     1
 40
30.0
176
     1
 62
     7
420
 16777215
176
     1
 90
        2
176
     1
 90
        2
176
     1
 62
     7
176
     1
 62
   257
176
     1
 90
        1
176
     1
 90
        1
176
     1
 40
179.0
176
     1
 90
        8
176
     1
 62
     7
176
     1
 40
1.0
176
     1
 90
        1
176
     1
 90
        6
176
     1
 90
        2
176
     1
 62
     7
176
     1
 90
        3
176
     1
 90
        0
176
     1
 90
        0
176
     1
290
     0
176
     1
 90
        1
176
     1
 40
0.0
176
     1
 90
        0
176
     1
290
     0
176
     1
290
     1
176
     1
290
     1
176
     1
290
     0
176
     1
290
     0
176
     1
290
     0
176
     1
290
     0
176
     1
290
     0
176
     1
290
     0
176
     1
 90
       50
176
     1
 40
0.0
176
     1
 40
1.0
176
     1
 90
        0
176
     1
 62
    18
420
        0
176
     1
 90
       50
176
     1
 90
        3
176
     1
 62
     5
420
      255
176
     1
290
     0
176
     1
 90
       50
176
     1
 90
       50
176
     1
 90
       50
176
     1
290
     0
176
     1
 90
       50
176
     1
 62
   256
176
     0
 40
1.0
176
     0
 90
        2
176
     1
  1
strokes_ogs.tif
176
     1
290
     0
176
     1
 40
1.0
176
     1
 40
1.0
176
     1
  0
VISUALSTYLE
  5
34
102
{ACAD_REACTORS
330
29
102
}
330
29
100
AcDbVisualStyle
  2
Dim
 70
    11
177
     3
291
     1
 70
    58
 90
        2
176
     1
 90
        2
176
     1
 90
        0
176
     1
 90
        0
176
     1
 40
0.6
176
     1
 40
30.0
176
     1
 62
     7
420
 16777215
176
     1
 90
        1
176
     1
 90
        4
176
     1
 62
     7
176
     1
 62
   257
176
     1
 90
        1
176
     1
 90
        1
176
     1
 40
1.0
176
     1
 90
        8
176
     1
 62
     7
176
     1
 40
1.0
176
     1
 90
        1
176
     1
 90
        6
176
     1
 90
        2
176
     1
 62
     7
176
     1
 90
        5
176
     1
 90
        0
176
     1
 90
        0
176
     1
290
     0
176
     1
 90
        1
176
     1
 40
-50.0
176
     1
 90
        0
176
     1
290
     0
176
     1
290
     1
176
     1
290
     1
176
     1
290
     0
176
     1
290
     0
176
     1
290
     0
176
     1
290
     0
176
     1
290
     0
176
     1
290
     0
176
     1
 90
       50
176
     1
 40
0.0
176
     1
 40
1.0
176
     1
 90
        0
176
     1
 62
    18
420
        0
176
     1
 90
       50
176
     1
 90
        3
176
     1
 62
     5
420
      255
176
     1
290
     0
176
     1
 90
       50
176
     1
 90
       50
176
     1
 90
       50
176
     1
290
     0
176
     1
 90
       50
176
     1
 62
   256
176
     0
 40
1.0
176
     0
 90
        2
176
     1
  1
strokes_ogs.tif
176
     1
290
     0
176
     1
 40
1.0
176
     1
 40
1.0
176
     1
  0
VISUALSTYLE
  5
41
102
{ACAD_REACTORS
330
29
102
}
330
29
100
AcDbVisualStyle
  2
EdgeColorOff
 70
    22
177
     3
291
     1
 70
    58
 90
        2
176
     0
 90
        2
176
     0
 90
        0
176
     0
 90
        0
176
     0
 40
0.6
176
     0
 40
30.0
176
     0
 62
     7
420
 16777215
176
     0
 90
        1
176
     0
 90
        4
176
     0
 62
     7
176
     0
 62
   257
176
     0
 90
        1
176
     0
 90
        1
176
     0
 40
1.0
176
     0
 90
        8
176
     2
 62
     7
176
     0
 40
1.0
176
     0
 90
        1
176
     0
 90
        6
176
     0
 90
        2
176
     0
 62
     7
176
     0
 90
        5
176
     0
 90
        0
176
     0
 90
        0
176
     0
290
     0
176
     0
 90
        1
176
     0
 40
0.0
176
     0
 90
        0
176
     0
290
     0
176
     0
290
     1
176
     0
290
     1
176
     0
290
     0
176
     0
290
     0
176
     0
290
     0
176
     0
290
     0
176
     0
290
     0
176
     0
290
     0
176
     0
 90
       50
176
     0
 40
0.0
176
     0
 40
1.0
176
     0
 90
        0
176
     0
 62
    18
420
        0
176
     0
 90
       50
176
     0
 90
        3
176
     0
 62
     5
420
      255
176
     0
290
     0
176
     0
 90
       50
176
     0
 90
       50
176
     0
 90
       50
176
     0
290
     0
176
     0
 90
       50
176
     0
 62
   256
176
     0
 40
1.0
176
     0
 90
        2
176
     0
  1
strokes_ogs.tif
176
     0
290
     0
176
     0
 40
1.0
176
     0
 40
1.0
176
     0
  0
VISUALSTYLE
  5
38
102
{ACAD_REACTORS
330
29
102
}
330
29
100
AcDbVisualStyle
  2
Facepattern
 70
    15
177
     3
291
     1
 70
    58
 90
        2
176
     1
 90
        2
176
     1
 90
        0
176
     1
 90
        0
176
     1
 40
0.6
176
     1
 40
30.0
176
     1
 62
     7
420
 16777215
176
     1
 90
        1
176
     1
 90
        4
176
     1
 62
     7
176
     1
 62
   257
176
     1
 90
        1
176
     1
 90
        1
176
     1
 40
1.0
176
     1
 90
        8
176
     1
 62
     7
176
     1
 40
1.0
176
     1
 90
        1
176
     1
 90
        6
176
     1
 90
        2
176
     1
 62
     7
176
     1
 90
        5
176
     1
 90
        0
176
     1
 90
        0
176
     1
290
     0
176
     1
 90
        1
176
     1
 40
0.0
176
     1
 90
        0
176
     1
290
     0
176
     1
290
     1
176
     1
290
     1
176
     1
290
     0
176
     1
290
     0
176
     1
290
     0
176
     1
290
     0
176
     1
290
     0
176
     1
290
     0
176
     1
 90
       50
176
     1
 40
0.0
176
     1
 40
1.0
176
     1
 90
        0
176
     1
 62
    18
420
        0
176
     1
 90
       50
176
     1
 90
        3
176
     1
 62
     5
420
      255
176
     1
290
     0
176
     1
 90
       50
176
     1
 90
       50
176
     1
 90
       50
176
     1
290
     0
176
     1
 90
       50
176
     1
 62
   256
176
     0
 40
1.0
176
     0
 90
        2
176
     1
  1
strokes_ogs.tif
176
     1
290
     0
176
     1
 40
1.0
176
     1
 40
1.0
176
     1
  0
VISUALSTYLE
  5
2A
102
{ACAD_REACTORS
330
29
102
}
330
29
100
AcDbVisualStyle
  2
Flat
 70
     0
177
     3
291
     1
 70
    58
 90
        2
176
     1
 90
        1
176
     1
 90
        1
176
     1
 90
        2
176
     1
 40
0.6
176
     1
 40
30.0
176
     1
 62
     7
420
 16777215
176
     1
 90
        0
176
     1
 90
        0
176
     1
 62
     7
176
     1
 62
   257
176
     1
 90
        1
176
     1
 90
        1
176
     1
 40
1.0
176
     1
 90
        8
176
     1
 62
     7
176
     1
 40
1.0
176
     1
 90
        1
176
     1
 90
        6
176
     1
 90
        2
176
     1
 62
     7
176
     1
 90
        5
176
     1
 90
        0
176
     1
 90
        0
176
     1
290
     0
176
     1
 90
       13
176
     1
 40
0.0
176
     1
 90
        0
176
     1
290
     0
176
     1
290
     1
176
     1
290
     1
176
     1
290
     0
176
     1
290
     0
176
     1
290
     0
176
     1
290
     0
176
     1
290
     0
176
     1
290
     0
176
     1
 90
       50
176
     1
 40
0.0
176
     1
 40
1.0
176
     1
 90
        0
176
     1
 62
    18
420
        0
176
     1
 90
       50
176
     1
 90
        3
176
     1
 62
     5
420
      255
176
     1
290
     0
176
     1
 90
       50
176
     1
 90
       50
176
     1
 90
       50
176
     1
290
     0
176
     1
 90
       50
176
     1
 62
   256
176
     0
 40
1.0
176
     0
 90
        2
176
     1
  1
strokes_ogs.tif
176
     1
290
     0
176
     1
 40
1.0
176
     1
 40
1.0
176
     1
  0
VISUALSTYLE
  5
2B
102
{ACAD_REACTORS
330
29
102
}
330
29
100
AcDbVisualStyle
  2
FlatWithEdges
 70
     1
177
     3
291
     1
 70
    58
 90
        2
176
     1
 90
        1
176
     1
 90
        1
176
     1
 90
        2
176
     1
 40
0.6
176
     1
 40
30.0
176
     1
 62
     7
420
 16777215
176
     1
 90
        1
176
     1
 90
        0
176
     1
 62
     7
176
     1
 62
   257
176
     1
 90
        1
176
     1
 90
        1
176
     1
 40
1.0
176
     1
 90
        0
176
     1
 62
   257
176
     1
 40
1.0
176
     1
 90
        1
176
     1
 90
        6
176
     1
 90
        2
176
     1
 62
     7
176
     1
 90
        5
176
     1
 90
        0
176
     1
 90
        0
176
     1
290
     0
176
     1
 90
       13
176
     1
 40
0.0
176
     1
 90
        0
176
     1
290
     0
176
     1
290
     1
176
     1
290
     1
176
     1
290
     0
176
     1
290
     0
176
     1
290
     0
176
     1
290
     0
176
     1
290
     0
176
     1
290
     0
176
     1
 90
       50
176
     1
 40
0.0
176
     1
 40
1.0
176
     1
 90
        0
176
     1
 62
    18
420
        0
176
     1
 90
       50
176
     1
 90
        3
176
     1
 62
     5
420
      255
176
     1
290
     0
176
     1
 90
       50
176
     1
 90
       50
176
     1
 90
       50
176
     1
290
     0
176
     1
 90
       50
176
     1
 62
   256
176
     0
 40
1.0
176
     0
 90
        2
176
     1
  1
strokes_ogs.tif
176
     1
290
     0
176
     1
 40
1.0
176
     1
 40
1.0
176
     1
  0
VISUALSTYLE
  5
2C
102
{ACAD_REACTORS
330
29
102
}
330
29
100
AcDbVisualStyle
  2
Gouraud
 70
     2
177
     3
291
     1
 70
    58
 90
        2
176
     1
 90
        2
176
     1
 90
        1
176
     1
 90
        2
176
     1
 40
0.6
176
     1
 40
30.0
176
     1
 62
     7
420
 16777215
176
     1
 90
        0
176
     1
 90
        0
176
     1
 62
     7
176
     1
 62
   257
176
     1
 90
        1
176
     1
 90
        1
176
     1
 40
1.0
176
     1
 90
        0
176
     1
 62
     7
176
     1
 40
1.0
176
     1
 90
        1
176
     1
 90
        6
176
     1
 90
        2
176
     1
 62
     7
176
     1
 90
        5
176
     1
 90
        0
176
     1
 90
        0
176
     1
290
     0
176
     1
 90
       13
176
     1
 40
0.0
176
     1
 90
        0
176
     1
290
     0
176
     1
290
     1
176
     1
290
     1
176
     1
290
     0
176
     1
290
     0
176
     1
290
     0
176
     1
290
     0
176
     1
290
     0
176
     1
290
     0
176
     1
 90
       50
176
     1
 40
0.0
176
     1
 40
1.0
176
     1
 90
        0
176
     1
 62
    18
420
        0
176
     1
 90
       50
176
     1
 90
        3
176
     1
 62
     5
420
      255
176
     1
290
     0
176
     1
 90
       50
176
     1
 90
       50
176
     1
 90
       50
176
     1
290
     0
176
     1
 90
       50
176
     1
 62
   256
176
     0
 40
1.0
176
     0
 90
        2
176
     1
  1
strokes_ogs.tif
176
     1
290
     0
176
     1
 40
1.0
176
     1
 40
1.0
176
     1
  0
VISUALSTYLE
  5
2D
102
{ACAD_REACTORS
330
29
102
}
330
29
100
AcDbVisualStyle
  2
GouraudWithEdges
 70
     3
177
     3
291
     1
 70
    58
 90
        2
176
     1
 90
        2
176
     1
 90
        1
176
     1
 90
        2
176
     1
 40
0.6
176
     1
 40
30.0
176
     1
 62
     7
420
 16777215
176
     1
 90
        1
176
     1
 90
        0
176
     1
 62
     7
176
     1
 62
   257
176
     1
 90
        1
176
     1
 90
        1
176
     1
 40
1.0
176
     1
 90
        0
176
     1
 62
   257
176
     1
 40
1.0
176
     1
 90
        1
176
     1
 90
        6
176
     1
 90
        2
176
     1
 62
     7
176
     1
 90
        5
176
     1
 90
        0
176
     1
 90
        0
176
     1
290
     0
176
     1
 90
       13
176
     1
 40
0.0
176
     1
 90
        0
176
     1
290
     0
176
     1
290
     1
176
     1
290
     1
176
     1
290
     0
176
     1
290
     0
176
     1
290
     0
176
     1
290
     0
176
     1
290
     0
176
     1
290
     0
176
     1
 90
       50
176
     1
 40
0.0
176
     1
 40
1.0
176
     1
 90
        0
176
     1
 62
    18
420
        0
176
     1
 90
       50
176
     1
 90
        3
176
     1
 62
     5
420
      255
176
     1
290
     0
176
     1
 90
       50
176
     1
 90
       50
176
     1
 90
       50
176
     1
290
     0
176
     1
 90
       50
176
     1
 62
   256
176
     0
 40
1.0
176
     0
 90
        2
176
     1
  1
strokes_ogs.tif
176
     1
290
     0
176
     1
 40
1.0
176
     1
 40
1.0
176
     1
  0
VISUALSTYLE
  5
31
102
{ACAD_REACTORS
330
29
102
}
330
29
100
AcDbVisualStyle
  2
Hidden
 70
     6
177
     3
291
     0
 70
    58
 90
        1
176
     1
 90
        2
176
     1
 90
        2
176
     1
 90
        0
176
     1
 40
0.6
176
     1
 40
30.0
176
     1
 62
     7
420
 16777215
176
     1
 90
        2
176
     1
 90
        2
176
     1
 62
     7
176
     1
 62
   257
176
     1
 90
        2
176
     1
 90
        1
176
     1
 40
40.0
176
     1
 90
        0
176
     1
 62
   257
176
     1
 40
1.0
176
     1
 90
        1
176
     1
 90
        6
176
     1
 90
        2
176
     1
 62
     7
176
     1
 90
        3
176
     1
 90
        0
176
     1
 90
        0
176
     1
290
     0
176
     1
 90
        1
176
     1
 40
0.0
176
     1
 90
        0
176
     1
290
     0
176
     1
290
     1
176
     1
290
     1
176
     1
290
     0
176
     1
290
     0
176
     1
290
     0
176
     1
290
     0
176
     1
290
     0
176
     1
290
     0
176
     1
 90
       50
176
     1
 40
0.0
176
     1
 40
1.0
176
     1
 90
        0
176
     1
 62
    18
420
        0
176
     1
 90
       50
176
     1
 90
        3
176
     1
 62
     5
420
      255
176
     1
290
     0
176
     1
 90
       50
176
     1
 90
       50
176
     1
 90
       50
176
     1
290
     0
176
     1
 90
       50
176
     1
 62
   256
176
     0
 40
1.0
176
     0
 90
        2
176
     1
  1
strokes_ogs.tif
176
     1
290
     0
176
     1
 40
1.0
176
     1
 40
1.0
176
     1
  0
VISUALSTYLE
  5
3F
102
{ACAD_REACTORS
330
29
102
}
330
29
100
AcDbVisualStyle
  2
JitterOff
 70
    20
177
     3
291
     1
 70
    58
 90
        2
176
     0
 90
        2
176
     0
 90
        0
176
     0
 90
        0
176
     0
 40
0.6
176
     0
 40
30.0
176
     0
 62
     7
420
 16777215
176
     0
 90
        1
176
     0
 90
        4
176
     0
 62
     7
176
     0
 62
   257
176
     0
 90
        1
176
     0
 90
        1
176
     0
 40
1.0
176
     0
 90
       10
176
     2
 62
     7
176
     0
 40
1.0
176
     0
 90
        1
176
     0
 90
        6
176
     0
 90
        2
176
     0
 62
     7
176
     0
 90
        5
176
     0
 90
        0
176
     0
 90
        0
176
     0
290
     0
176
     0
 90
        1
176
     0
 40
0.0
176
     0
 90
        0
176
     0
290
     0
176
     0
290
     1
176
     0
290
     1
176
     0
290
     0
176
     0
290
     0
176
     0
290
     0
176
     0
290
     0
176
     0
290
     0
176
     0
290
     0
176
     0
 90
       50
176
     0
 40
0.0
176
     0
 40
1.0
176
     0
 90
        0
176
     0
 62
    18
420
        0
176
     0
 90
       50
176
     0
 90
        3
176
     0
 62
     5
420
      255
176
     0
290
     0
176
     0
 90
       50
176
     0
 90
       50
176
     0
 90
       50
176
     0
290
     0
176
     0
 90
       50
176
     0
 62
   256
176
     0
 40
1.0
176
     0
 90
        2
176
     0
  1
strokes_ogs.tif
176
     0
290
     0
176
     0
 40
1.0
176
     0
 40
1.0
176
     0
  0
VISUALSTYLE
  5
37
102
{ACAD_REACTORS
330
29
102
}
330
29
100
AcDbVisualStyle
  2
Linepattern
 70
    14
177
     3
291
     1
 70
    58
 90
        2
176
     1
 90
        2
176
     1
 90
        0
176
     1
 90
        0
176
     1
 40
0.6
176
     1
 40
30.0
176
     1
 62
     7
420
 16777215
176
     1
 90
        1
176
     1
 90
        4
176
     1
 62
     7
176
     1
 62
   257
176
     1
 90
        7
176
     1
 90
        7
176
     1
 40
1.0
176
     1
 90
        8
176
     1
 62
     7
176
     1
 40
1.0
176
     1
 90
        1
176
     1
 90
        6
176
     1
 90
        2
176
     1
 62
     7
176
     1
 90
        5
176
     1
 90
        0
176
     1
 90
        0
176
     1
290
     0
176
     1
 90
        1
176
     1
 40
0.0
176
     1
 90
        0
176
     1
290
     0
176
     1
290
     1
176
     1
290
     1
176
     1
290
     0
176
     1
290
     0
176
     1
290
     0
176
     1
290
     0
176
     1
290
     0
176
     1
290
     0
176
     1
 90
       50
176
     1
 40
0.0
176
     1
 40
1.0
176
     1
 90
        0
176
     1
 62
    18
420
        0
176
     1
 90
       50
176
     1
 90
        3
176
     1
 62
     5
420
      255
176
     1
290
     0
176
     1
 90
       50
176
     1
 90
       50
176
     1
 90
       50
176
     1
290
     0
176
     1
 90
       50
176
     1
 62
   256
176
     0
 40
1.0
176
     0
 90
        2
176
     1
  1
strokes_ogs.tif
176
     1
290
     0
176
     1
 40
1.0
176
     1
 40
1.0
176
     1
  0
VISUALSTYLE
  5
40
102
{ACAD_REACTORS
330
29
102
}
330
29
100
AcDbVisualStyle
  2
OverhangOff
 70
    21
177
     3
291
     1
 70
    58
 90
        2
176
     0
 90
        2
176
     0
 90
        0
176
     0
 90
        0
176
     0
 40
0.6
176
     0
 40
30.0
176
     0
 62
     7
420
 16777215
176
     0
 90
        1
176
     0
 90
        4
176
     0
 62
     7
176
     0
 62
   257
176
     0
 90
        1
176
     0
 90
        1
176
     0
 40
1.0
176
     0
 90
        9
176
     2
 62
     7
176
     0
 40
1.0
176
     0
 90
        1
176
     0
 90
        6
176
     0
 90
        2
176
     0
 62
     7
176
     0
 90
        5
176
     0
 90
        0
176
     0
 90
        0
176
     0
290
     0
176
     0
 90
        1
176
     0
 40
0.0
176
     0
 90
        0
176
     0
290
     0
176
     0
290
     1
176
     0
290
     1
176
     0
290
     0
176
     0
290
     0
176
     0
290
     0
176
     0
290
     0
176
     0
290
     0
176
     0
290
     0
176
     0
 90
       50
176
     0
 40
0.0
176
     0
 40
1.0
176
     0
 90
        0
176
     0
 62
    18
420
        0
176
     0
 90
       50
176
     0
 90
        3
176
     0
 62
     5
420
      255
176
     0
290
     0
176
     0
 90
       50
176
     0
 90
       50
176
     0
 90
       50
176
     0
290
     0
176
     0
 90
       50
176
     0
 62
   256
176
     0
 40
1.0
176
     0
 90
        2
176
     0
  1
strokes_ogs.tif
176
     0
290
     0
176
     0
 40
1.0
176
     0
 40
1.0
176
     0
  0
VISUALSTYLE
  5
33
102
{ACAD_REACTORS
330
29
102
}
330
29
100
AcDbVisualStyle
  2
Realistic
 70
     8
177
     3
291
     0
 70
    58
 90
        2
176
     1
 90
        3
176
     1
 90
        0
176
     1
 90
        2
176
     1
 40
0.6
176
     1
 40
30.0
176
     1
 62
     7
420
 16777215
176
     1
 90
        0
176
     1
 90
        0
176
     1
 62
     7
176
     1
 62
   257
176
     1
 90
        1
176
     1
 90
        1
176
     1
 40
1.0
176
     1
 90
        8
176
     1
 62
   257
176
     1
 40
1.0
176
     1
 90
        1
176
     1
 90
        6
176
     1
 90
        2
176
     1
 62
     7
176
     1
 90
        3
176
     1
 90
        0
176
     1
 90
        0
176
     1
290
     0
176
     1
 90
       13
176
     1
 40
0.0
176
     1
 90
        0
176
     1
290
     0
176
     1
290
     1
176
     1
290
     1
176
     1
290
     0
176
     1
290
     0
176
     1
290
     0
176
     1
290
     0
176
     1
290
     0
176
     1
290
     0
176
     1
 90
       50
176
     1
 40
0.0
176
     1
 40
1.0
176
     1
 90
        0
176
     1
 62
    18
420
        0
176
     1
 90
       50
176
     1
 90
        3
176
     1
 62
     5
420
      255
176
     1
290
     0
176
     1
 90
       50
176
     1
 90
       50
176
     1
 90
       50
176
     1
290
     0
176
     1
 90
       50
176
     1
 62
   256
176
     0
 40
1.0
176
     0
 90
        2
176
     1
  1
strokes_ogs.tif
176
     1
290
     0
176
     1
 40
1.0
176
     1
 40
1.0
176
     1
  0
VISUALSTYLE
  5
3E
102
{ACAD_REACTORS
330
29
102
}
330
29
100
AcDbVisualStyle
  2
Shaded
 70
    27
177
     3
291
     0
 70
    58
 90
        2
176
     1
 90
        2
176
     1
 90
        1
176
     1
 90
        2
176
     1
 40
0.6
176
     1
 40
30.0
176
     1
 62
     7
420
 16777215
176
     1
 90
        0
176
     1
 90
        4
176
     1
 62
     7
176
     1
 62
   257
176
     1
 90
        1
176
     1
 90
        1
176
     1
 40
1.0
176
     1
 90
        8
176
     1
 62
   257
176
     1
 40
1.0
176
     1
 90
        1
176
     1
 90
        6
176
     1
 90
        2
176
     1
 62
     8
420
  7895160
176
     1
 90
        3
176
     1
 90
        0
176
     1
 90
        0
176
     1
290
     0
176
     1
 90
        5
176
     1
 40
0.0
176
     1
 90
        0
176
     1
290
     0
176
     1
290
     1
176
     1
290
     1
176
     1
290
     0
176
     1
290
     0
176
     1
290
     0
176
     1
290
     0
176
     1
290
     0
176
     1
290
     0
176
     1
 90
       50
176
     1
 40
0.0
176
     1
 40
1.0
176
     1
 90
        0
176
     1
 62
    18
420
        0
176
     1
 90
       50
176
     1
 90
        3
176
     1
 62
     5
420
      255
176
     1
290
     0
176
     1
 90
       50
176
     1
 90
       50
176
     1
 90
       50
176
     1
290
     0
176
     1
 90
       50
176
     1
 62
   256
176
     0
 40
1.0
176
     0
 90
        2
176
     1
  1
strokes_ogs.tif
176
     1
290
     0
176
     1
 40
1.0
176
     1
 40
1.0
176
     1
  0
VISUALSTYLE
  5
3D
102
{ACAD_REACTORS
330
29
102
}
330
29
100
AcDbVisualStyle
  2
Shaded with edges
 70
    26
177
     3
291
     0
 70
    58
 90
        2
176
     1
 90
        2
176
     1
 90
        1
176
     1
 90
        2
176
     1
 40
0.6
176
     1
 40
30.0
176
     1
 62
     7
420
 16777215
176
     1
 90
        1
176
     1
 90
        2
176
     1
 62
     7
176
     1
 62
   257
176
     1
 90
        2
176
     1
 90
        1
176
     1
 40
1.0
176
     1
 90
        8
176
     1
 62
   257
176
     1
 40
1.0
176
     1
 90
        1
176
     1
 90
        6
176
     1
 90
        2
176
     1
 62
     7
176
     1
 90
        3
176
     1
 90
        0
176
     1
 90
        0
176
     1
290
     0
176
     1
 90
        5
176
     1
 40
0.0
176
     1
 90
        0
176
     1
290
     0
176
     1
290
     1
176
     1
290
     1
176
     1
290
     0
176
     1
290
     0
176
     1
290
     0
176
     1
290
     0
176
     1
290
     0
176
     1
290
     0
176
     1
 90
       50
176
     1
 40
0.0
176
     1
 40
1.0
176
     1
 90
        0
176
     1
 62
    18
420
        0
176
     1
 90
       50
176
     1
 90
        3
176
     1
 62
     5
420
      255
176
     1
290
     0
176
     1
 90
       50
176
     1
 90
       50
176
     1
 90
       50
176
     1
290
     0
176
     1
 90
       50
176
     1
 62
   256
176
     0
 40
1.0
176
     0
 90
        2
176
     1
  1
strokes_ogs.tif
176
     1
290
     0
176
     1
 40
1.0
176
     1
 40
1.0
176
     1
  0
VISUALSTYLE
  5
3A
102
{ACAD_REACTORS
330
29
102
}
330
29
100
AcDbVisualStyle
  2
Shades of Gray
 70
    23
177
     3
291
     0
 70
    58
 90
        2
176
     1
 90
        2
176
     1
 90
        3
176
     1
 90
        0
176
     1
 40
0.6
176
     1
 40
30.0
176
     1
 62
     7
420
 16777215
176
     1
 90
        2
176
     1
 90
        2
176
     1
 62
     7
176
     1
 62
     7
176
     1
 90
        1
176
     1
 90
        1
176
     1
 40
40.0
176
     1
 90
        8
176
     1
 62
     7
176
     1
 40
1.0
176
     1
 90
        1
176
     1
 90
        6
176
     1
 90
        2
176
     1
 62
     7
176
     1
 90
        3
176
     1
 90
        0
176
     1
 90
        0
176
     1
290
     0
176
     1
 90
        1
176
     1
 40
0.0
176
     1
 90
        0
176
     1
290
     0
176
     1
290
     1
176
     1
290
     1
176
     1
290
     0
176
     1
290
     0
176
     1
290
     0
176
     1
290
     0
176
     1
290
     0
176
     1
290
     0
176
     1
 90
       50
176
     1
 40
0.0
176
     1
 40
1.0
176
     1
 90
        0
176
     1
 62
    18
420
        0
176
     1
 90
       50
176
     1
 90
        3
176
     1
 62
     5
420
      255
176
     1
290
     0
176
     1
 90
       50
176
     1
 90
       50
176
     1
 90
       50
176
     1
290
     0
176
     1
 90
       50
176
     1
 62
   256
176
     0
 40
1.0
176
     0
 90
        2
176
     1
  1
strokes_ogs.tif
176
     1
290
     0
176
     1
 40
1.0
176
     1
 40
1.0
176
     1
  0
VISUALSTYLE
  5
3B
102
{ACAD_REACTORS
330
29
102
}
330
29
100
AcDbVisualStyle
  2
Sketchy
 70
    24
177
     3
291
     0
 70
    58
 90
        1
176
     1
 90
        2
176
     1
 90
        2
176
     1
 90
        0
176
     1
 40
0.6
176
     1
 40
30.0
176
     1
 62
     7
420
 16777215
176
     1
 90
        2
176
     1
 90
        2
176
     1
 62
     7
176
     1
 62
     7
176
     1
 90
        1
176
     1
 90
        1
176
     1
 40
40.0
176
     1
 90
       11
176
     1
 62
     7
176
     1
 40
1.0
176
     1
 90
        1
176
     1
 90
        6
176
     1
 90
        2
176
     1
 62
     7
176
     1
 90
        6
176
     1
 90
        0
176
     1
 90
        0
176
     1
290
     0
176
     1
 90
        1
176
     1
 40
0.0
176
     1
 90
        0
176
     1
290
     0
176
     1
290
     1
176
     1
290
     1
176
     1
290
     0
176
     1
290
     0
176
     1
290
     0
176
     1
290
     0
176
     1
290
     0
176
     1
290
     0
176
     1
 90
       50
176
     1
 40
0.0
176
     1
 40
1.0
176
     1
 90
        0
176
     1
 62
    18
420
        0
176
     1
 90
       50
176
     1
 90
        3
176
     1
 62
     5
420
      255
176
     1
290
     0
176
     1
 90
       50
176
     1
 90
       50
176
     1
 90
       50
176
     1
290
     0
176
     1
 90
       50
176
     1
 62
   256
176
     0
 40
1.0
176
     0
 90
        2
176
     1
  1
strokes_ogs.tif
176
     1
290
     0
176
     1
 40
1.0
176
     1
 40
1.0
176
     1
  0
VISUALSTYLE
  5
36
102
{ACAD_REACTORS
330
29
102
}
330
29
100
AcDbVisualStyle
  2
Thicken
 70
    13
177
     3
291
     1
 70
    58
 90
        2
176
     1
 90
        2
176
     1
 90
        0
176
     1
 90
        0
176
     1
 40
0.6
176
     1
 40
30.0
176
     1
 62
     7
420
 16777215
176
     1
 90
        1
176
     1
 90
        4
176
     1
 62
     7
176
     1
 62
   257
176
     1
 90
        1
176
     1
 90
        1
176
     1
 40
1.0
176
     1
 90
       12
176
     1
 62
     7
176
     1
 40
1.0
176
     1
 90
        1
176
     1
 90
        6
176
     1
 90
        2
176
     1
 62
     7
176
     1
 90
        5
176
     1
 90
        0
176
     1
 90
        0
176
     1
290
     0
176
     1
 90
        1
176
     1
 40
0.0
176
     1
 90
        0
176
     1
290
     0
176
     1
290
     1
176
     1
290
     1
176
     1
290
     0
176
     1
290
     0
176
     1
290
     0
176
     1
290
     0
176
     1
290
     0
176
     1
290
     0
176
     1
 90
       50
176
     1
 40
0.0
176
     1
 40
1.0
176
     1
 90
        0
176
     1
 62
    18
420
        0
176
     1
 90
       50
176
     1
 90
        3
176
     1
 62
     5
420
      255
176
     1
290
     0
176
     1
 90
       50
176
     1
 90
       50
176
     1
 90
       50
176
     1
290
     0
176
     1
 90
       50
176
     1
 62
   256
176
     0
 40
1.0
176
     0
 90
        2
176
     1
  1
strokes_ogs.tif
176
     1
290
     0
176
     1
 40
1.0
176
     1
 40
1.0
176
     1
  0
VISUALSTYLE
  5
30
102
{ACAD_REACTORS
330
29
102
}
330
29
100
AcDbVisualStyle
  2
Wireframe
 70
     5
177
     3
291
     0
 70
    58
 90
        0
176
     1
 90
        2
176
     1
 90
        0
176
     1
 90
        0
176
     1
 40
0.6
176
     1
 40
30.0
176
     1
 62
     7
420
 16777215
176
     1
 90
        1
176
     1
 90
        4
176
     1
 62
     7
176
     1
 62
   257
176
     1
 90
        1
176
     1
 90
        1
176
     1
 40
1.0
176
     1
 90
        0
176
     1
 62
   257
176
     1
 40
1.0
176
     1
 90
        1
176
     1
 90
        6
176
     1
 90
        2
176
     1
 62
     7
176
     1
 90
        3
176
     1
 90
        0
176
     1
 90
        0
176
     1
290
     0
176
     1
 90
        1
176
     1
 40
0.0
176
     1
 90
        0
176
     1
290
     0
176
     1
290
     1
176
     1
290
     1
176
     1
290
     0
176
     1
290
     0
176
     1
290
     0
176
     1
290
     0
176
     1
290
     0
176
     1
290
     0
176
     1
 90
       50
176
     1
 40
0.0
176
     1
 40
1.0
176
     1
 90
        0
176
     1
 62
    18
420
        0
176
     1
 90
       50
176
     1
 90
        3
176
     1
 62
     5
420
      255
176
     1
290
     0
176
     1
 90
       50
176
     1
 90
       50
176
     1
 90
       50
176
     1
290
     0
176
     1
 90
       50
176
     1
 62
   256
176
     0
 40
1.0
176
     0
 90
        2
176
     1
  1
strokes_ogs.tif
176
     1
290
     0
176
     1
 40
1.0
176
     1
 40
1.0
176
     1
  0
VISUALSTYLE
  5
3C
102
{ACAD_REACTORS
330
29
102
}
330
29
100
AcDbVisualStyle
  2
X-Ray
 70
    25
177
     3
291
     0
 70
    58
 90
        2
176
     1
 90
        2
176
     1
 90
        1
176
     1
 90
        1
176
     1
 40
0.5
176
     1
 40
30.0
176
     1
 62
     7
420
 16777215
176
     1
 90
        1
176
     1
 90
        0
176
     1
 62
     7
176
     1
 62
   257
176
     1
 90
        1
176
     1
 90
        1
176
     1
 40
1.0
176
     1
 90
        8
176
     1
 62
     7
176
     1
 40
1.0
176
     1
 90
        1
176
     1
 90
        6
176
     1
 90
        2
176
     1
 62
     7
176
     1
 90
        3
176
     1
 90
        0
176
     1
 90
        0
176
     1
290
     0
176
     1
 90
       13
176
     1
 40
0.0
176
     1
 90
        0
176
     1
290
     0
176
     1
290
     1
176
     1
290
     1
176
     1
290
     0
176
     1
290
     0
176
     1
290
     0
176
     1
290
     0
176
     1
290
     0
176
     1
290
     0
176
     1
 90
       50
176
     1
 40
0.0
176
     1
 40
1.0
176
     1
 90
        0
176
     1
 62
    18
420
        0
176
     1
 90
       50
176
     1
 90
        3
176
     1
 62
     5
420
      255
176
     1
290
     0
176
     1
 90
       50
176
     1
 90
       50
176
     1
 90
       50
176
     1
290
     0
176
     1
 90
       50
176
     1
 62
   256
176
     0
 40
1.0
176
     0
 90
        2
176
     1
  1
strokes_ogs.tif
176
     1
290
     0
176
     1
 40
1.0
176
     1
 40
1.0
176
     1
  0
DICTIONARYVAR
  5
307
102
{ACAD_REACTORS
330
302
102
}
330
302
100
DictionaryVariables
280
     0
  1
1:1
  0
DICTIONARYVAR
  5
304
102
{ACAD_REACTORS
330
302
102
}
330
302
100
DictionaryVariables
280
     0
  1
STANDARD
  0
DICTIONARYVAR
  5
303
102
{ACAD_REACTORS
330
302
102
}
330
302
100
DictionaryVariables
280
     0
  1
STANDARD
  0
DICTIONARYVAR
  5
305
102
{ACAD_REACTORS
330
302
102
}
330
302
100
DictionaryVariables
280
     0
  1
Imperial24
  0
DICTIONARYVAR
  5
306
102
{ACAD_REACTORS
330
302
102
}
330
302
100
DictionaryVariables
280
     0
  1
Imperial24
  0
DICTIONARY
  5
1A
330
19
100
AcDbDictionary
280
     1
281
     1
  3
BUMPTILE
360
1C
  3
DIFFUSETILE
360
1B
  3
OPACITYTILE
360
1F
  3
REFLECTIONTILE
360
1E
  3
REFRACTIONTILE
360
20
  3
SPECULARTILE
360
1D
  0
DICTIONARY
  5
12
330
11
100
AcDbDictionary
280
     1
281
     1
  3
BUMPTILE
360
14
  3
DIFFUSETILE
360
13
  3
OPACITYTILE
360
17
  3
REFLECTIONTILE
360
16
  3
REFRACTIONTILE
360
18
  3
SPECULARTILE
360
15
  0
DICTIONARY
  5
22
330
21
100
AcDbDictionary
280
     1
281
     1
  3
BUMPTILE
360
24
  3
DIFFUSETILE
360
23
  3
OPACITYTILE
360
27
  3
REFLECTIONTILE
360
26
  3
REFRACTIONTILE
360
28
  3
SPECULARTILE
360
25
  0
DICTIONARY
  5
308
330
65
100
AcDbDictionary
280
     1
281
     1
  3
ACAD_ROUNDTRIP_2008_TABLESTYLE_CELLSTYLEMAP
360
309
  0
XRECORD
  5
1C
102
{ACAD_REACTORS
330
1A
102
}
330
1A
100
AcDbXrecord
280
     1
270
     1
271
     1
  0
XRECORD
  5
1B
102
{ACAD_REACTORS
330
1A
102
}
330
1A
100
AcDbXrecord
280
     1
270
     1
271
     1
  0
XRECORD
  5
1F
102
{ACAD_REACTORS
330
1A
102
}
330
1A
100
AcDbXrecord
280
     1
270
     1
271
     1
  0
XRECORD
  5
1E
102
{ACAD_REACTORS
330
1A
102
}
330
1A
100
AcDbXrecord
280
     1
270
     1
271
     1
  0
XRECORD
  5
20
102
{ACAD_REACTORS
330
1A
102
}
330
1A
100
AcDbXrecord
280
     1
270
     1
271
     1
  0
XRECORD
  5
1D
102
{ACAD_REACTORS
330
1A
102
}
330
1A
100
AcDbXrecord
280
     1
270
     1
271
     1
  0
XRECORD
  5
14
102
{ACAD_REACTORS
330
12
102
}
330
12
100
AcDbXrecord
280
     1
270
     1
271
     1
  0
XRECORD
  5
13
102
{ACAD_REACTORS
330
12
102
}
330
12
100
AcDbXrecord
280
     1
270
     1
271
     1
  0
XRECORD
  5
17
102
{ACAD_REACTORS
330
12
102
}
330
12
100
AcDbXrecord
280
     1
270
     1
271
     1
  0
XRECORD
  5
16
102
{ACAD_REACTORS
330
12
102
}
330
12
100
AcDbXrecord
280
     1
270
     1
271
     1
  0
XRECORD
  5
18
102
{ACAD_REACTORS
330
12
102
}
330
12
100
AcDbXrecord
280
     1
270
     1
271
     1
  0
XRECORD
  5
15
102
{ACAD_REACTORS
330
12
102
}
330
12
100
AcDbXrecord
280
     1
270
     1
271
     1
  0
XRECORD
  5
24
102
{ACAD_REACTORS
330
22
102
}
330
22
100
AcDbXrecord
280
     1
270
     1
271
     1
  0
XRECORD
  5
23
102
{ACAD_REACTORS
330
22
102
}
330
22
100
AcDbXrecord
280
     1
270
     1
271
     1
  0
XRECORD
  5
27
102
{ACAD_REACTORS
330
22
102
}
330
22
100
AcDbXrecord
280
     1
270
     1
271
     1
  0
XRECORD
  5
26
102
{ACAD_REACTORS
330
22
102
}
330
22
100
AcDbXrecord
280
     1
270
     1
271
     1
  0
XRECORD
  5
28
102
{ACAD_REACTORS
330
22
102
}
330
22
100
AcDbXrecord
280
     1
270
     1
271
     1
  0
XRECORD
  5
25
102
{ACAD_REACTORS
330
22
102
}
330
22
100
AcDbXrecord
280
     1
270
     1
271
     1
  0
CELLSTYLEMAP
  5
309
102
{ACAD_REACTORS
330
308
102
}
330
308
100
AcDbCellStyleMap
 90
        3
300
CELLSTYLE
  1
TABLEFORMAT_BEGIN
 90
        5
170
     1
 91
        0
 92
    32768
 62
   257
 93
        1
300
CONTENTFORMAT
  1
CONTENTFORMAT_BEGIN
 90
        0
 91
        0
 92
      512
 93
        0
300

 40
0.0
140
1.0
 94
        5
 62
     0
340
55
144
0.25
309
CONTENTFORMAT_END
171
     0
 94
        0
309
TABLEFORMAT_END
  1
CELLSTYLE_BEGIN
 90
        1
 91
        1
300
_TITLE
309
CELLSTYLE_END
300
CELLSTYLE
  1
TABLEFORMAT_BEGIN
 90
        5
170
     1
 91
        0
 92
        0
 62
   257
 93
        1
300
CONTENTFORMAT
  1
CONTENTFORMAT_BEGIN
 90
        0
 91
        0
 92
      512
 93
        0
300

 40
0.0
140
1.0
 94
        5
 62
     0
340
55
144
0.18
309
CONTENTFORMAT_END
171
     0
 94
        0
309
TABLEFORMAT_END
  1
CELLSTYLE_BEGIN
 90
        2
 91
        1
300
_HEADER
309
CELLSTYLE_END
300
CELLSTYLE
  1
TABLEFORMAT_BEGIN
 90
        5
170
     1
 91
        0
 92
        0
 62
   257
 93
        1
300
CONTENTFORMAT
  1
CONTENTFORMAT_BEGIN
 90
        0
 91
        0
 92
      512
 93
        0
300

 40
0.0
140
1.0
 94
        2
 62
     0
340
55
144
0.18
309
CONTENTFORMAT_END
171
     0
 94
        0
309
TABLEFORMAT_END
  1
CELLSTYLE_BEGIN
 90
        3
 91
        2
300
_DATA
309
CELLSTYLE_END
  0
ENDSEC
  0
EOF
