  0
SECTION
  2
HEADER
  9
$ACADVER
  1
AC1032
  9
$ACADMAINTVER
 90
      228
  9
$DWGCODEPAGE
  3
ANSI_1252
  9
$REQUIREDVERSIONS
160
                 0
  9
$INSBASE
 10
0.0
 20
0.0
 30
0.0
  9
$EXTMIN
 10
1.000000000000000E+20
 20
1.000000000000000E+20
 30
1.000000000000000E+20
  9
$EXTMAX
 10
-1.000000000000000E+20
 20
-1.000000000000000E+20
 30
-1.000000000000000E+20
  9
$LIMMIN
 10
0.0
 20
0.0
  9
$LIMMAX
 10
12.0
 20
9.0
  9
$ORTHOMODE
 70
     0
  9
$REGENMODE
 70
     1
  9
$FILLMODE
 70
     1
  9
$QTEXTMODE
 70
     0
  9
$MIRRTEXT
 70
     0
  9
$LTSCALE
 40
1.0
  9
$ATTMODE
 70
     1
  9
$TEXTSIZE
 40
0.2
  9
$TRACEWID
 40
0.05
  9
$TEXTSTYLE
  7
Standard
  9
$CLAYER
  8
0
  9
$CELTYPE
  6
ByLayer
  9
$CECOLOR
 62
   256
  9
$CELTSCALE
 40
1.0
  9
$DISPSILH
 70
     0
  9
$DIMSCALE
 40
1.0
  9
$DIMASZ
 40
0.18
  9
$DIMEXO
 40
0.0625
  9
$DIMDLI
 40
0.38
  9
$DIMRND
 40
0.0
  9
$DIMDLE
 40
0.0
  9
$DIMEXE
 40
0.18
  9
$DIMTP
 40
0.0
  9
$DIMTM
 40
0.0
  9
$DIMTXT
 40
0.18
  9
$DIMCEN
 40
0.09
  9
$DIMTSZ
 40
0.0
  9
$DIMTOL
 70
     0
  9
$DIMLIM
 70
     0
  9
$DIMTIH
 70
     1
  9
$DIMTOH
 70
     1
  9
$DIMSE1
 70
     0
  9
$DIMSE2
 70
     0
  9
$DIMTAD
 70
     0
  9
$DIMZIN
 70
     0
  9
$DIMBLK
  1

  9
$DIMASO
 70
     1
  9
$DIMSHO
 70
     1
  9
$DIMPOST
  1

  9
$DIMAPOST
  1

  9
$DIMALT
 70
     0
  9
$DIMALTD
 70
     2
  9
$DIMALTF
 40
25.4
  9
$DIMLFAC
 40
1.0
  9
$DIMTOFL
 70
     0
  9
$DIMTVP
 40
0.0
  9
$DIMTIX
 70
     0
  9
$DIMSOXD
 70
     0
  9
$DIMSAH
 70
     0
  9
$DIMBLK1
  1

  9
$DIMBLK2
  1

  9
$DIMSTYLE
  2
Standard
  9
$DIMCLRD
 70
     0
  9
$DIMCLRE
 70
     0
  9
$DIMCLRT
 70
     0
  9
$DIMTFAC
 40
1.0
  9
$DIMGAP
 40
0.09
  9
$DIMJUST
 70
     0
  9
$DIMSD1
 70
     0
  9
$DIMSD2
 70
     0
  9
$DIMTOLJ
 70
     1
  9
$DIMTZIN
 70
     0
  9
$DIMALTZ
 70
     0
  9
$DIMALTTZ
 70
     0
  9
$DIMUPT
 70
     0
  9
$DIMDEC
 70
     4
  9
$DIMTDEC
 70
     4
  9
$DIMALTU
 70
     2
  9
$DIMALTTD
 70
     2
  9
$DIMTXSTY
  7
Standard
  9
$DIMAUNIT
 70
     0
  9
$DIMADEC
 70
     0
  9
$DIMALTRND
 40
0.0
  9
$DIMAZIN
 70
     0
  9
$DIMDSEP
 70
    46
  9
$DIMATFIT
 70
     3
  9
$DIMFRAC
 70
     0
  9
$DIMLDRBLK
  1

  9
$DIMLUNIT
 70
     2
  9
$DIMLWD
 70
    -2
  9
$DIMLWE
 70
    -2
  9
$DIMTMOVE
 70
     0
  9
$DIMFXL
 40
1.0
  9
$DIMFXLON
 70
     0
  9
$DIMJOGANG
 40
0.7853981633974483
  9
$DIMTFILL
 70
     0
  9
$DIMTFILLCLR
 70
     0
  9
$DIMARCSYM
 70
     0
  9
$DIMLTYPE
  6

  9
$DIMLTEX1
  6

  9
$DIMLTEX2
  6

  9
$DIMTXTDIRECTION
 70
     0
  9
$LUNITS
 70
     2
  9
$LUPREC
 70
     4
  9
$SKETCHINC
 40
0.1
  9
$FILLETRAD
 40
0.0
  9
$AUNITS
 70
     0
  9
$AUPREC
 70
     0
  9
$MENU
  1
.
  9
$ELEVATION
 40
0.0
  9
$PELEVATION
 40
0.0
  9
$THICKNESS
 40
0.0
  9
$LIMCHECK
 70
     0
  9
$CHAMFERA
 40
0.0
  9
$CHAMFERB
 40
0.0
  9
$CHAMFERC
 40
0.0
  9
$CHAMFERD
 40
0.0
  9
$SKPOLY
 70
     0
  9
$TDCREATE
 40
2460118.674537037
  9
$TDUCREATE
 40
2460118.632870371
  9
$TDUPDATE
 40
2460118.674537037
  9
$TDUUPDATE
 40
2460118.632870371
  9
$TDINDWG
 40
0.0000000000
  9
$TDUSRTIMER
 40
0.0000000000
  9
$USRTIMER
 70
     1
  9
$ANGBASE
 50
0.0
  9
$ANGDIR
 70
     0
  9
$PDMODE
 70
     0
  9
$PDSIZE
 40
0.0
  9
$PLINEWID
 40
0.0
  9
$SPLFRAME
 70
     0
  9
$SPLINETYPE
 70
     6
  9
$SPLINESEGS
 70
     8
  9
$HANDSEED
  5
137
  9
$SURFTAB1
 70
     6
  9
$SURFTAB2
 70
     6
  9
$SURFTYPE
 70
     6
  9
$SURFU
 70
     6
  9
$SURFV
 70
     6
  9
$UCSBASE
  2

  9
$UCSNAME
  2

  9
$UCSORG
 10
0.0
 20
0.0
 30
0.0
  9
$UCSXDIR
 10
1.0
 20
0.0
 30
0.0
  9
$UCSYDIR
 10
0.0
 20
1.0
 30
0.0
  9
$UCSORTHOREF
  2

  9
$UCSORTHOVIEW
 70
     0
  9
$UCSORGTOP
 10
0.0
 20
0.0
 30
0.0
  9
$UCSORGBOTTOM
 10
0.0
 20
0.0
 30
0.0
  9
$UCSORGLEFT
 10
0.0
 20
0.0
 30
0.0
  9
$UCSORGRIGHT
 10
0.0
 20
0.0
 30
0.0
  9
$UCSORGFRONT
 10
0.0
 20
0.0
 30
0.0
  9
$UCSORGBACK
 10
0.0
 20
0.0
 30
0.0
  9
$PUCSBASE
  2

  9
$PUCSNAME
  2

  9
$PUCSORG
 10
0.0
 20
0.0
 30
0.0
  9
$PUCSXDIR
 10
1.0
 20
0.0
 30
0.0
  9
$PUCSYDIR
 10
0.0
 20
1.0
 30
0.0
  9
$PUCSORTHOREF
  2

  9
$PUCSORTHOVIEW
 70
     0
  9
$PUCSORGTOP
 10
0.0
 20
0.0
 30
0.0
  9
$PUCSORGBOTTOM
 10
0.0
 20
0.0
 30
0.0
  9
$PUCSORGLEFT
 10
0.0
 20
0.0
 30
0.0
  9
$PUCSORGRIGHT
 10
0.0
 20
0.0
 30
0.0
  9
$PUCSORGFRONT
 10
0.0
 20
0.0
 30
0.0
  9
$PUCSORGBACK
 10
0.0
 20
0.0
 30
0.0
  9
$USERI1
 70
     0
  9
$USERI2
 70
     0
  9
$USERI3
 70
     0
  9
$USERI4
 70
     0
  9
$USERI5
 70
     0
  9
$USERR1
 40
0.0
  9
$USERR2
 40
0.0
  9
$USERR3
 40
0.0
  9
$USERR4
 40
0.0
  9
$USERR5
 40
0.0
  9
$WORLDVIEW
 70
     1
  9
$SHADEDGE
 70
     3
  9
$SHADEDIF
 70
    70
  9
$TILEMODE
 70
     1
  9
$MAXACTVP
 70
    64
  9
$PINSBASE
 10
0.0
 20
0.0
 30
0.0
  9
$PLIMCHECK
 70
     0
  9
$PEXTMIN
 10
1.000000000000000E+20
 20
1.000000000000000E+20
 30
1.000000000000000E+20
  9
$PEXTMAX
 10
-1.000000000000000E+20
 20
-1.000000000000000E+20
 30
-1.000000000000000E+20
  9
$PLIMMIN
 10
0.0
 20
0.0
  9
$PLIMMAX
 10
12.0
 20
9.0
  9
$UNITMODE
 70
     0
  9
$VISRETAIN
 70
     1
  9
$PLINEGEN
 70
     0
  9
$PSLTSCALE
 70
     1
  9
$TREEDEPTH
 70
  3020
  9
$CMLSTYLE
  2
Standard
  9
$CMLJUST
 70
     0
  9
$CMLSCALE
 40
1.0
  9
$PROXYGRAPHICS
 70
     1
  9
$MEASUREMENT
 70
     0
  9
$CELWEIGHT
370
    -1
  9
$ENDCAPS
280
     0
  9
$JOINSTYLE
280
     0
  9
$LWDISPLAY
290
     1
  9
$INSUNITS
 70
     0
  9
$HYPERLINKBASE
  1

  9
$STYLESHEET
  1

  9
$XEDIT
290
     1
  9
$CEPSNTYPE
380
     0
  9
$PSTYLEMODE
290
     1
  9
$FINGERPRINTGUID
  2
{1491E01A-42E4-724E-863E-49EC31A1B4FA}
  9
$VERSIONGUID
  2
{4CA9CF49-4597-8A41-8026-94CD01B93D0F}
  9
$EXTNAMES
290
     1
  9
$PSVPSCALE
 40
0.0
  9
$OLESTARTUP
290
     0
  9
$SORTENTS
280
   127
  9
$INDEXCTL
280
     0
  9
$HIDETEXT
280
     1
  9
$XCLIPFRAME
280
     2
  9
$HALOGAP
280
     0
  9
$OBSCOLOR
 70
   257
  9
$OBSLTYPE
280
     0
  9
$INTERSECTIONDISPLAY
280
     0
  9
$INTERSECTIONCOLOR
 70
   257
  9
$DIMASSOC
280
     2
  9
$PROJECTNAME
  1

  9
$CAMERADISPLAY
290
     0
  9
$LENSLENGTH
 40
50.0
  9
$CAMERAHEIGHT
 40
0.0
  9
$STEPSPERSEC
 40
2.0
  9
$STEPSIZE
 40
6.0
  9
$3DDWFPREC
 40
2.0
  9
$PSOLWIDTH
 40
0.25
  9
$PSOLHEIGHT
 40
4.0
  9
$LOFTANG1
 40
1.570796326794896
  9
$LOFTANG2
 40
1.570796326794896
  9
$LOFTMAG1
 40
0.0
  9
$LOFTMAG2
 40
0.0
  9
$LOFTPARAM
 70
     7
  9
$LOFTNORMALS
280
     1
  9
$LATITUDE
 40
37.795
  9
$LONGITUDE
 40
-122.394
  9
$NORTHDIRECTION
 40
0.0
  9
$TIMEZONE
 70
 -8000
  9
$LIGHTGLYPHDISPLAY
280
     1
  9
$TILEMODELIGHTSYNCH
280
     1
  9
$CMATERIAL
347
11
  9
$SOLIDHIST
280
     0
  9
$SHOWHIST
280
     1
  9
$DWFFRAME
280
     2
  9
$DGNFRAME
280
     0
  9
$REALWORLDSCALE
290
     1
  9
$INTERFERECOLOR
 62
     1
  9
$INTERFEREOBJVS
345
33
  9
$INTERFEREVPVS
346
30
  9
$CSHADOW
280
     0
  9
$SHADOWPLANELOCATION
 40
0.0
  0
ENDSEC
  0
SECTION
  2
CLASSES
  0
CLASS
  1
ACDBDICTIONARYWDFLT
  2
AcDbDictionaryWithDefault
  3
ObjectDBX Classes
 90
        0
 91
        1
280
     0
281
     0
  0
CLASS
  1
MATERIAL
  2
AcDbMaterial
  3
ObjectDBX Classes
 90
     1153
 91
        3
280
     0
281
     0
  0
CLASS
  1
VISUALSTYLE
  2
AcDbVisualStyle
  3
ObjectDBX Classes
 90
     4095
 91
       24
280
     0
281
     0
  0
CLASS
  1
SCALE
  2
AcDbScale
  3
ObjectDBX Classes
 90
     1153
 91
       17
280
     0
281
     0
  0
CLASS
  1
TABLESTYLE
  2
AcDbTableStyle
  3
ObjectDBX Classes
 90
     4095
 91
        1
280
     0
281
     0
  0
CLASS
  1
MLEADERSTYLE
  2
AcDbMLeaderStyle
  3
ACDB_MLEADERSTYLE_CLASS
 90
     4095
 91
        1
280
     0
281
     0
  0
CLASS
  1
ACDBSECTIONVIEWSTYLE
  2
AcDbSectionViewStyle
  3
ObjectDBX Classes
 90
     1025
 91
        1
280
     0
281
     0
  0
CLASS
  1
ACDBDETAILVIEWSTYLE
  2
AcDbDetailViewStyle
  3
ObjectDBX Classes
 90
     1025
 91
        1
280
     0
281
     0
  0
CLASS
  1
DICTIONARYVAR
  2
AcDbDictionaryVar
  3
ObjectDBX Classes
 90
        0
 91
        5
280
     0
281
     0
  0
CLASS
  1
CELLSTYLEMAP
  2
AcDbCellStyleMap
  3
ObjectDBX Classes
 90
     1152
 91
        1
280
     0
281
     0
  0
ENDSEC
  0
SECTION
  2
TABLES
  0
TABLE
  2
VPORT
  5
8
330
0
100
AcDbSymbolTable
 70
     1
  0
VPORT
  5
57
330
8
100
AcDbSymbolTableRecord
100
AcDbViewportTableRecord
  2
*Active
 70
     0
 10
0.0
 20
0.0
 11
1.0
 21
1.0
 12
0.0
 22
0.0
 13
0.0
 23
0.0
 14
1.0
 24
1.0
 15
0.0
 25
0.0
 16
0.0
 26
0.0
 36
1.0
 17
297.6379999999999
 27
420.9450000000002
 37
0.0
 40
858.7278000000003
 41
0.7070709950231024
 42
50.0
 43
0.0
 44
0.0
 50
0.0
 51
0.0
 71
     0
 72
   100
 73
     1
 74
     1
 75
     0
 76
     0
 77
     0
 78
     0
281
     0
 65
     1
110
0.0
120
0.0
130
0.0
111
1.0
121
0.0
131
0.0
112
0.0
122
1.0
132
0.0
 79
     0
146
0.0
 60
     3
 61
     5
292
     1
282
     1
141
0.0
142
0.0
 63
   250
421
  3355443
  0
ENDTAB
  0
TABLE
  2
LTYPE
  5
5
330
0
100
AcDbSymbolTable
 70
    12
  0
LTYPE
  5
5B
330
5
100
AcDbSymbolTableRecord
100
AcDbLinetypeTableRecord
  2
ByBlock
 70
     0
  3

 72
    65
 73
     0
 40
0.0
  0
LTYPE
  5
5C
330
5
100
AcDbSymbolTableRecord
100
AcDbLinetypeTableRecord
  2
ByLayer
 70
     0
  3

 72
    65
 73
     0
 40
0.0
  0
LTYPE
  5
5D
330
5
100
AcDbSymbolTableRecord
100
AcDbLinetypeTableRecord
  2
Continuous
 70
     0
  3
Solid line
 72
    65
 73
     0
 40
0.0
  0
LTYPE
  5
79
330
5
100
AcDbSymbolTableRecord
100
AcDbLinetypeTableRecord
  2
AI-Linetype-0
 70
     0
  3
Adobe Illustrator Linetype No. 0
 72
    65
 73
     4
 40
20.31999969482422
 49
12.69999980926513
 74
     0
 49
-2.539999961853027
 74
     0
 49
2.539999961853027
 74
     0
 49
-2.539999961853027
 74
     0
  0
LTYPE
  5
8A
330
5
100
AcDbSymbolTableRecord
100
AcDbLinetypeTableRecord
  2
AI-Linetype-1
 70
     0
  3
Adobe Illustrator Linetype No. 1
 72
    65
 73
     2
 40
1.90499997138977
 49
1.269999980926513
 74
     0
 49
-0.6349999904632569
 74
     0
  0
LTYPE
  5
8C
330
5
100
AcDbSymbolTableRecord
100
AcDbLinetypeTableRecord
  2
AI-Linetype-2
 70
     0
  3
Adobe Illustrator Linetype No. 2
 72
    65
 73
     2
 40
1.90499997138977
 49
1.269999980926513
 74
     0
 49
-0.6349999904632569
 74
     0
  0
LTYPE
  5
8E
330
5
100
AcDbSymbolTableRecord
100
AcDbLinetypeTableRecord
  2
AI-Linetype-3
 70
     0
  3
Adobe Illustrator Linetype No. 3
 72
    65
 73
     2
 40
1.90499997138977
 49
1.269999980926513
 74
     0
 49
-0.6349999904632569
 74
     0
  0
LTYPE
  5
90
330
5
100
AcDbSymbolTableRecord
100
AcDbLinetypeTableRecord
  2
AI-Linetype-4
 70
     0
  3
Adobe Illustrator Linetype No. 4
 72
    65
 73
     2
 40
1.90499997138977
 49
1.269999980926513
 74
     0
 49
-0.6349999904632569
 74
     0
  0
LTYPE
  5
92
330
5
100
AcDbSymbolTableRecord
100
AcDbLinetypeTableRecord
  2
AI-Linetype-5
 70
     0
  3
Adobe Illustrator Linetype No. 5
 72
    65
 73
     2
 40
1.90499997138977
 49
1.269999980926513
 74
     0
 49
-0.6349999904632569
 74
     0
  0
LTYPE
  5
94
330
5
100
AcDbSymbolTableRecord
100
AcDbLinetypeTableRecord
  2
AI-Linetype-6
 70
     0
  3
Adobe Illustrator Linetype No. 6
 72
    65
 73
     2
 40
1.90499997138977
 49
1.269999980926513
 74
     0
 49
-0.6349999904632569
 74
     0
  0
LTYPE
  5
96
330
5
100
AcDbSymbolTableRecord
100
AcDbLinetypeTableRecord
  2
AI-Linetype-7
 70
     0
  3
Adobe Illustrator Linetype No. 7
 72
    65
 73
     2
 40
1.90499997138977
 49
1.269999980926513
 74
     0
 49
-0.6349999904632569
 74
     0
  0
LTYPE
  5
98
330
5
100
AcDbSymbolTableRecord
100
AcDbLinetypeTableRecord
  2
AI-Linetype-8
 70
     0
  3
Adobe Illustrator Linetype No. 8
 72
    65
 73
     2
 40
1.90499997138977
 49
1.269999980926513
 74
     0
 49
-0.6349999904632569
 74
     0
  0
LTYPE
  5
9A
330
5
100
AcDbSymbolTableRecord
100
AcDbLinetypeTableRecord
  2
AI-Linetype-9
 70
     0
  3
Adobe Illustrator Linetype No. 9
 72
    65
 73
     2
 40
1.90499997138977
 49
1.269999980926513
 74
     0
 49
-0.6349999904632569
 74
     0
  0
LTYPE
  5
9C
330
5
100
AcDbSymbolTableRecord
100
AcDbLinetypeTableRecord
  2
AI-Linetype-10
 70
     0
  3
Adobe Illustrator Linetype No. 10
 72
    65
 73
     2
 40
1.90499997138977
 49
1.269999980926513
 74
     0
 49
-0.6349999904632569
 74
     0
  0
ENDTAB
  0
TABLE
  2
LAYER
  5
2
330
0
100
AcDbSymbolTable
 70
     1
  0
LAYER
  5
54
330
2
100
AcDbSymbolTableRecord
100
AcDbLayerTableRecord
  2
0
 70
     0
 62
     7
  6
Continuous
370
     0
390
F
347
21
348
0
  0
ENDTAB
  0
TABLE
  2
STYLE
  5
3
330
0
100
AcDbSymbolTable
 70
     2
  0
STYLE
  5
55
330
3
100
AcDbSymbolTableRecord
100
AcDbTextStyleTableRecord
  2
Standard
 70
     0
 40
0.0
 41
1.0
 50
0.0
 71
     0
 42
0.2
  3
txt
  4

  0
STYLE
  5
5A
330
3
100
AcDbSymbolTableRecord
100
AcDbTextStyleTableRecord
  2
Annotative
 70
     0
 40
0.0
 41
1.0
 50
0.0
 71
     0
 42
0.2
  3
txt
  4

1001
AcadAnnotative
1000
AnnotativeData
1002
{
1070
     1
1070
     1
1002
}
  0
ENDTAB
  0
TABLE
  2
VIEW
  5
6
330
0
100
AcDbSymbolTable
 70
     0
  0
ENDTAB
  0
TABLE
  2
UCS
  5
7
330
0
100
AcDbSymbolTable
 70
     0
  0
ENDTAB
  0
TABLE
  2
APPID
  5
9
330
0
100
AcDbSymbolTable
 70
     2
  0
APPID
  5
56
330
9
100
AcDbSymbolTableRecord
100
AcDbRegAppTableRecord
  2
ACAD
 70
     0
  0
APPID
  5
5E
330
9
100
AcDbSymbolTableRecord
100
AcDbRegAppTableRecord
  2
AcadAnnotative
 70
     0
  0
ENDTAB
  0
TABLE
  2
DIMSTYLE
  5
A
330
0
100
AcDbSymbolTable
 70
     2
100
AcDbDimStyleTable
 71
     0
  0
DIMSTYLE
105
58
330
A
100
AcDbSymbolTableRecord
100
AcDbDimStyleTableRecord
  2
Standard
 70
     0
340
55
  0
DIMSTYLE
105
59
330
A
100
AcDbSymbolTableRecord
100
AcDbDimStyleTableRecord
  2
Annotative
 70
     0
340
55
1001
AcadAnnotative
1000
AnnotativeData
1002
{
1070
     1
1070
     1
1002
}
  0
ENDTAB
  0
TABLE
  2
BLOCK_RECORD
  5
1
330
0
100
AcDbSymbolTable
 70
     1
  0
BLOCK_RECORD
  5
70
330
1
100
AcDbSymbolTableRecord
100
AcDbBlockTableRecord
  2
*Model_Space
340
73
 70
     0
280
     1
281
     0
  0
BLOCK_RECORD
  5
6C
330
1
100
AcDbSymbolTableRecord
100
AcDbBlockTableRecord
  2
*Paper_Space
340
6F
 70
     0
280
     1
281
     0
  0
BLOCK_RECORD
  5
74
330
1
100
AcDbSymbolTableRecord
100
AcDbBlockTableRecord
  2
*Paper_Space0
340
77
 70
     0
280
     1
281
     0
  0
ENDTAB
  0
ENDSEC
  0
SECTION
  2
BLOCKS
  0
BLOCK
  5
71
330
70
100
AcDbEntity
  8
0
100
AcDbBlockBegin
  2
*Model_Space
 70
     0
 10
0.0
 20
0.0
 30
0.0
  3
*Model_Space
  1

  0
ENDBLK
  5
72
330
70
100
AcDbEntity
  8
0
100
AcDbBlockEnd
  0
BLOCK
  5
6D
330
6C
100
AcDbEntity
 67
     1
  8
0
100
AcDbBlockBegin
  2
*Paper_Space
 70
     0
 10
0.0
 20
0.0
 30
0.0
  3
*Paper_Space
  1

  0
ENDBLK
  5
6E
330
6C
100
AcDbEntity
 67
     1
  8
0
100
AcDbBlockEnd
  0
BLOCK
  5
75
330
74
100
AcDbEntity
 67
     1
  8
0
100
AcDbBlockBegin
  2
*Paper_Space0
 70
     0
 10
0.0
 20
0.0
 30
0.0
  3
*Paper_Space0
  1

  0
ENDBLK
  5
76
330
74
100
AcDbEntity
 67
     1
  8
0
100
AcDbBlockEnd
  0
ENDSEC
  0
SECTION
  2
ENTITIES
  0
LINE
  5
78
330
70
100
AcDbEntity
  8
0
  6
AI-Linetype-0
 62
    18
420
        0
370
     9
100
AcDbLine
 10
385.2778248447012
 20
415.2862882867593
 30
0.0
 11
385.8137078541022
 21
415.2862882867593
 31
0.0
  0
LINE
  5
7A
330
70
100
AcDbEntity
  8
0
 62
    18
420
        0
370
     9
100
AcDbLine
 10
375.5529992240026
 20
464.2869072733601
 30
0.0
 11
375.5529992240026
 21
489.6665054141603
 31
0.0
  0
LINE
  5
7B
330
70
100
AcDbEntity
  8
0
 62
    18
420
        0
370
     9
100
AcDbLine
 10
367.6529996055015
 20
489.6665054141603
 30
0.0
 11
367.6529996055015
 21
463.5118680773603
 31
0.0
  0
LINE
  5
7C
330
70
100
AcDbEntity
  8
0
 62
    18
420
        0
370
     9
100
AcDbLine
 10
393.102998282302
 20
489.6665054141603
 30
0.0
 11
393.102998282302
 21
505.9806543170607
 31
0.0
  0
LINE
  5
7D
330
70
100
AcDbEntity
  8
0
 62
    18
420
        0
370
     9
100
AcDbLine
 10
350.1029996159032
 20
505.9806543170607
 30
0.0
 11
350.1029996159032
 21
489.6665054141603
 31
0.0
  0
LINE
  5
7E
330
70
100
AcDbEntity
  8
0
 62
    18
420
        0
370
     9
100
AcDbLine
 10
393.102998282302
 20
489.6665054141603
 30
0.0
 11
350.1029996159032
 21
489.6665054141603
 31
0.0
  0
LINE
  5
7F
330
70
100
AcDbEntity
  8
0
 62
    18
420
        0
370
     9
100
AcDbLine
 10
374.2317840415017
 20
505.9806543170607
 30
0.0
 11
393.102998282302
 21
505.9806543170607
 31
0.0
  0
LINE
  5
80
330
70
100
AcDbEntity
  8
0
 62
    18
420
        0
370
     9
100
AcDbLine
 10
350.1029996159032
 20
505.9806543170607
 30
0.0
 11
374.2317840415017
 21
505.9806543170607
 31
0.0
  0
LINE
  5
81
330
70
100
AcDbEntity
  8
0
 62
    18
420
        0
370
     9
100
AcDbLine
 10
375.5529992240026
 20
425.0111139073606
 30
0.0
 11
375.5529992240026
 21
454.2868888631592
 31
0.0
  0
LINE
  5
82
330
70
100
AcDbEntity
  8
0
 62
    18
420
        0
370
     9
100
AcDbLine
 10
367.6529996055015
 20
453.5118794694599
 30
0.0
 11
367.6529996055015
 21
427.2232806935599
 31
0.0
  0
LINE
  5
83
330
70
100
AcDbEntity
  8
0
 62
    18
420
        0
370
     9
100
AcDbLine
 10
353.0763801145022
 20
413.4904301419592
 30
0.0
 11
299.1522200364034
 21
359.5662570252589
 31
0.0
  0
LINE
  5
84
330
70
100
AcDbEntity
  8
0
 62
    18
420
        0
370
     9
100
AcDbLine
 10
329.5578103471034
 20
329.1606760278591
 30
0.0
 11
400.4806190687013
 21
400.0834977880604
 31
0.0
  0
LWPOLYLINE
  5
85
330
70
100
AcDbEntity
  8
0
 62
    18
420
        0
370
     9
100
AcDbPolyline
 90
       26
 70
     0
 43
0.0
 10
329.5578103471034
 20
329.1606760278591
 10
329.5265737879035
 20
329.1919088616596
 10
329.2774580377027
 20
329.441056276859
 10
328.7833150434035
 20
329.9351787820597
 10
328.0522603500031
 20
330.6662297502589
 10
327.096296842703
 20
331.6221690431594
 10
325.931121032203
 20
332.7873802438589
 10
324.5758678722032
 20
334.1426110520588
 10
323.0527866590019
 20
335.6656885400589
 10
321.386888991603
 20
337.331578756859
 10
319.6055278140029
 20
339.1129827752593
 10
317.7379541057035
 20
340.98051550536
 10
315.8148325938018
 20
342.9036593690598
 10
313.8677425641035
 20
344.8507642999593
 10
311.9286507326033
 20
346.7898226037596
 10
310.0294008809033
 20
348.689065004859
 10
308.2011774140028
 20
350.51731827406
 10
306.4739987212033
 20
352.2444820657602
 10
304.8762254375033
 20
353.8422441735602
 10
303.4340947824021
 20
355.284378553959
 10
302.1712884265034
 20
356.5472221627588
 10
301.1085338849025
 20
357.6099729791604
 10
300.2632878679033
 20
358.4552264466602
 10
299.6494270819021
 20
359.0690350785589
 10
299.277032162503
 20
359.4414448991593
 10
299.1522200364034
 20
359.5662570252589
  0
LINE
  5
86
330
70
100
AcDbEntity
  8
0
 62
    18
420
        0
370
     9
100
AcDbLine
 10
356.7772427532036
 20
416.4359724774604
 30
0.0
 11
370.508937533501
 21
430.0551569715598
 31
0.0
  0
SPLINE
  5
87
330
70
100
AcDbEntity
  8
0
 62
    18
420
        0
370
     9
100
AcDbSpline
210
0.0
220
0.0
230
1.0
 70
     8
 71
     3
 72
    23
 73
    19
 74
     0
 42
0.0000000001
 43
0.0000000001
 40
0.0
 40
0.0
 40
0.0
 40
0.0
 40
1.0
 40
1.0
 40
1.0
 40
2.0
 40
2.0
 40
2.0
 40
3.0
 40
3.0
 40
3.0
 40
4.0
 40
4.0
 40
4.0
 40
5.0
 40
5.0
 40
5.0
 40
6.0
 40
6.0
 40
6.0
 40
6.0
 10
353.0861264052728
 20
413.4806847825729
 30
0.0
 10
353.0965519621186
 20
413.4873674961745
 30
0.0
 10
353.1069775189662
 20
413.4940502097743
 30
0.0
 10
353.1173974233607
 20
413.5007417455399
 30
0.0
 10
353.278201416304
 20
413.604008112412
 30
0.0
 10
353.4376592292883
 20
413.709375553155
 30
0.0
 10
353.5958331967631
 20
413.8166463628494
 30
0.0
 10
353.8798087923551
 20
414.0092336296347
 30
0.0
 10
354.15964625167
 20
414.207955902566
 30
0.0
 10
354.4347210745254
 20
414.4130802407944
 30
0.0
 10
354.806697824899
 20
414.6904647137343
 30
0.0
 10
355.1699653937885
 20
414.9795563049901
 30
0.0
 10
355.5236127185562
 20
415.2800894036972
 30
0.0
 10
355.9238398046964
 20
415.6202064580647
 30
0.0
 10
356.3117455408865
 20
415.9749774874708
 30
0.0
 10
356.6849961834887
 20
416.3443005338394
 30
0.0
 10
356.7158116337669
 20
416.3747917230648
 30
0.0
 10
356.7465271934743
 20
416.4053821002853
 30
0.0
 10
356.7772427531818
 20
416.435972477504
 30
0.0
  0
LWPOLYLINE
  5
88
330
70
100
AcDbEntity
  8
0
 62
    18
420
        0
370
     9
100
AcDbPolyline
 90
       24
 70
     0
 43
0.0
 10
370.508937533501
 20
430.0551569715598
 10
371.0954714524014
 20
429.4686472669609
 10
371.9176206696029
 20
428.6464905992606
 10
372.9617301333019
 20
427.6023662343605
 10
374.2104493040024
 20
426.3536489263596
 10
375.6430357653026
 20
424.92108109146
 10
377.2356886375019
 20
423.3284151807611
 10
378.961949046201
 20
421.6021454587599
 10
380.7931341189014
 20
419.7709715619603
 10
382.6988287228014
 20
417.8652918592597
 10
384.6473678904022
 20
415.9167266145596
 10
386.606378849101
 20
413.9577305570601
 10
388.5433211881009
 20
412.020788218062
 10
390.4260121244024
 20
410.1380861058587
 10
392.2231741208016
 20
408.3409464612596
 10
393.9049489754016
 20
406.6591418042589
 10
395.4434007364034
 20
405.1207161203601
 10
396.8129664617027
 20
403.751150394959
 10
397.9908958035012
 20
402.5732136026599
 10
398.9576160866018
 20
401.6064858689605
 10
399.6970713097017
 20
400.8670306459589
 10
400.1969717401006
 20
400.3671264901604
 10
400.4490174311031
 20
400.1150882497604
 10
400.4806190687013
 20
400.0834977880604
  0
LINE
  5
89
330
70
100
AcDbEntity
  8
0
  6
AI-Linetype-1
 62
    18
420
        0
370
     9
100
AcDbLine
 10
378.7279996529014
 20
453.899388840161
 30
0.0
 11
377.1654996529014
 21
455.899388840161
 31
0.0
  0
LINE
  5
8B
330
70
100
AcDbEntity
  8
0
  6
AI-Linetype-2
 62
    18
420
        0
370
     9
100
AcDbLine
 10
377.1654996529014
 20
455.899388840161
 30
0.0
 11
373.1654996529014
 21
451.899388840161
 31
0.0
  0
LINE
  5
8D
330
70
100
AcDbEntity
  8
0
  6
AI-Linetype-3
 62
    18
420
        0
370
     9
100
AcDbLine
 10
373.1654996529014
 20
451.899388840161
 30
0.0
 11
370.0404996529014
 21
455.899388840161
 31
0.0
  0
LINE
  5
8F
330
70
100
AcDbEntity
  8
0
  6
AI-Linetype-4
 62
    18
420
        0
370
     9
100
AcDbLine
 10
370.0404996529014
 20
455.899388840161
 30
0.0
 11
366.0404996529014
 21
451.899388840161
 31
0.0
  0
LINE
  5
91
330
70
100
AcDbEntity
  8
0
  6
AI-Linetype-5
 62
    18
420
        0
370
     9
100
AcDbLine
 10
366.0404996529014
 20
451.899388840161
 30
0.0
 11
364.4779996529032
 21
453.899388840161
 31
0.0
  0
LINE
  5
93
330
70
100
AcDbEntity
  8
0
  6
AI-Linetype-6
 62
    18
420
        0
370
     9
100
AcDbLine
 10
378.7279996529014
 20
463.899388840161
 30
0.0
 11
377.1654996529014
 21
465.8993888401609
 31
0.0
  0
LINE
  5
95
330
70
100
AcDbEntity
  8
0
  6
AI-Linetype-7
 62
    18
420
        0
370
     9
100
AcDbLine
 10
377.1654996529014
 20
465.8993888401609
 30
0.0
 11
373.1654996529014
 21
461.899388840161
 31
0.0
  0
LINE
  5
97
330
70
100
AcDbEntity
  8
0
  6
AI-Linetype-8
 62
    18
420
        0
370
     9
100
AcDbLine
 10
373.1654996529014
 20
461.899388840161
 30
0.0
 11
370.0404996529014
 21
465.8993888401609
 31
0.0
  0
LINE
  5
99
330
70
100
AcDbEntity
  8
0
  6
AI-Linetype-9
 62
    18
420
        0
370
     9
100
AcDbLine
 10
370.0404996529014
 20
465.8993888401609
 30
0.0
 11
366.0404996529014
 21
461.899388840161
 31
0.0
  0
LINE
  5
9B
330
70
100
AcDbEntity
  8
0
  6
AI-Linetype-10
 62
    18
420
        0
370
     9
100
AcDbLine
 10
366.0404996529014
 20
461.899388840161
 30
0.0
 11
364.4779996529032
 21
463.899388840161
 31
0.0
  0
LINE
  5
9D
330
70
100
AcDbEntity
  8
0
 62
    18
420
        0
370
     9
100
AcDbLine
 10
210.2884368934301
 20
453.9627735625808
 30
0.0
 11
210.2884368934301
 21
452.7627735625819
 31
0.0
  0
LINE
  5
9E
330
70
100
AcDbEntity
  8
0
 62
    18
420
        0
370
     9
100
AcDbLine
 10
250.0884368934303
 20
452.7627735625819
 30
0.0
 11
250.0884368934303
 21
453.9627735625808
 31
0.0
  0
LINE
  5
9F
330
70
100
AcDbEntity
  8
0
 62
    18
420
        0
370
     9
100
AcDbLine
 10
249.9884368934299
 20
450.0124433520823
 30
0.0
 11
249.9884368934299
 21
450.2001131861807
 31
0.0
  0
LINE
  5
A0
330
70
100
AcDbEntity
  8
0
 62
    18
420
        0
370
     9
100
AcDbLine
 10
210.3884368934305
 20
449.4499433561823
 30
0.0
 11
210.3884368934305
 21
449.2624433520822
 31
0.0
  0
LINE
  5
A1
330
70
100
AcDbEntity
  8
0
 62
    18
420
        0
370
     9
100
AcDbLine
 10
210.3884368934305
 20
450.9499433561822
 30
0.0
 11
210.3884368934305
 21
450.7624433521804
 31
0.0
  0
SPLINE
  5
A2
330
70
100
AcDbEntity
  8
0
 62
    18
420
        0
370
     9
100
AcDbSpline
210
0.0
220
0.0
230
1.0
 70
     8
 71
     3
 72
    11
 73
     7
 74
     0
 42
0.0000000001
 43
0.0000000001
 40
0.0
 40
0.0
 40
0.0
 40
0.0
 40
1.0
 40
1.0
 40
1.0
 40
2.0
 40
2.0
 40
2.0
 40
2.0
 10
210.3922617772341
 20
449.2583069121656
 30
0.0
 10
210.5276067916739
 20
449.1801496999605
 30
0.0
 10
210.6629518061136
 20
449.1019924877536
 30
0.0
 10
210.7982966188047
 20
449.0238348912871
 30
0.0
 10
210.9325367685451
 20
448.9463152047601
 30
0.0
 10
211.0667767198165
 20
448.8687951402198
 30
0.0
 10
211.2010166710879
 20
448.7912750756795
 30
0.0
  0
SPLINE
  5
A3
330
70
100
AcDbEntity
  8
0
 62
    18
420
        0
370
     9
100
AcDbSpline
210
0.0
220
0.0
230
1.0
 70
     8
 71
     3
 72
    11
 73
     7
 74
     0
 42
0.0000000001
 43
0.0000000001
 40
0.0
 40
0.0
 40
0.0
 40
0.0
 40
1.0
 40
1.0
 40
1.0
 40
2.0
 40
2.0
 40
2.0
 40
2.0
 10
249.1725457394832
 20
449.539362846498
 30
0.0
 10
249.3078894820019
 20
449.6175203223238
 30
0.0
 10
249.4432332245169
 20
449.6956777981495
 30
0.0
 10
249.5785771679575
 20
449.7738348912871
 30
0.0
 10
249.713921981197
 20
449.8519924867095
 30
0.0
 10
249.8492669953621
 20
449.9301496994367
 30
0.0
 10
249.9846120095272
 20
450.0083069121656
 30
0.0
  0
LINE
  5
A4
330
70
100
AcDbEntity
  8
0
 62
    18
420
        0
370
     9
100
AcDbLine
 10
249.1725457395305
 20
451.0393628464798
 30
0.0
 11
249.5559743830299
 21
451.260782401182
 31
0.0
  0
SPLINE
  5
A5
330
70
100
AcDbEntity
  8
0
 62
    18
420
        0
370
     9
100
AcDbSpline
210
0.0
220
0.0
230
1.0
 70
     8
 71
     3
 72
    11
 73
     7
 74
     0
 42
0.0000000001
 43
0.0000000001
 40
0.0
 40
0.0
 40
0.0
 40
0.0
 40
1.0
 40
1.0
 40
1.0
 40
2.0
 40
2.0
 40
2.0
 40
2.0
 10
210.3922617772341
 20
450.7583069121656
 30
0.0
 10
210.5276067916739
 20
450.6801496999606
 30
0.0
 10
210.6629518061136
 20
450.6019924877537
 30
0.0
 10
210.7982966188047
 20
450.5238348912871
 30
0.0
 10
210.9325367685451
 20
450.4463152047601
 30
0.0
 10
211.0667767198165
 20
450.3687951402198
 30
0.0
 10
211.2010166710879
 20
450.2912750756795
 30
0.0
  0
SPLINE
  5
A6
330
70
100
AcDbEntity
  8
0
 62
    18
420
        0
370
     9
100
AcDbSpline
210
0.0
220
0.0
230
1.0
 70
     8
 71
     3
 72
    11
 73
     7
 74
     0
 42
0.0000000001
 43
0.0000000001
 40
0.0
 40
0.0
 40
0.0
 40
0.0
 40
1.0
 40
1.0
 40
1.0
 40
2.0
 40
2.0
 40
2.0
 40
2.0
 10
211.2043487684414
 20
449.9236964121309
 30
0.0
 10
211.0690054701454
 20
449.8455391933194
 30
0.0
 10
210.9336621718494
 20
449.7673819745095
 30
0.0
 10
210.7983186573938
 20
449.6892251323743
 30
0.0
 10
210.6629742868035
 20
449.611067795845
 30
0.0
 10
210.527629700051
 20
449.5329108359956
 30
0.0
 10
210.3922851132975
 20
449.4547538761462
 30
0.0
  0
SPLINE
  5
A7
330
70
100
AcDbEntity
  8
0
 62
    18
420
        0
370
     9
100
AcDbSpline
210
0.0
220
0.0
230
1.0
 70
     8
 71
     3
 72
    11
 73
     7
 74
     0
 42
0.0000000001
 43
0.0000000001
 40
0.0
 40
0.0
 40
0.0
 40
0.0
 40
1.0
 40
1.0
 40
1.0
 40
2.0
 40
2.0
 40
2.0
 40
2.0
 10
249.8719734137003
 20
448.7697855510186
 30
0.0
 10
249.7741672749844
 20
448.8262653349038
 30
0.0
 10
249.6763611362685
 20
448.8827451187926
 30
0.0
 10
249.5785551293675
 20
448.9392251323742
 30
0.0
 10
249.4445492324858
 20
449.0166094885707
 30
0.0
 10
249.3105435830503
 20
449.0939942759569
 30
0.0
 10
249.176537933613
 20
449.1713790633466
 30
0.0
  0
SPLINE
  5
A8
330
70
100
AcDbEntity
  8
0
 62
    18
420
        0
370
     9
100
AcDbSpline
210
0.0
220
0.0
230
1.0
 70
     8
 71
     3
 72
    11
 73
     7
 74
     0
 42
0.0000000001
 43
0.0000000001
 40
0.0
 40
0.0
 40
0.0
 40
0.0
 40
1.0
 40
1.0
 40
1.0
 40
2.0
 40
2.0
 40
2.0
 40
2.0
 10
249.9845886734647
 20
450.2047538761462
 30
0.0
 10
249.8492440863529
 20
450.2829108353717
 30
0.0
 10
249.7138994992429
 20
450.3610677945971
 30
0.0
 10
249.5785551293675
 20
450.4392251323743
 30
0.0
 10
249.444549255476
 20
450.5166095286321
 30
0.0
 10
249.3105435945444
 20
450.5939942959894
 30
0.0
 10
249.176537933613
 20
450.6713790633466
 30
0.0
  0
SPLINE
  5
A9
330
70
100
AcDbEntity
  8
0
 62
    18
420
        0
370
     9
100
AcDbSpline
210
0.0
220
0.0
230
1.0
 70
     8
 71
     3
 72
    11
 73
     7
 74
     0
 42
0.0000000001
 43
0.0000000001
 40
0.0
 40
0.0
 40
0.0
 40
0.0
 40
1.0
 40
1.0
 40
1.0
 40
2.0
 40
2.0
 40
2.0
 40
2.0
 10
210.934147464086
 20
451.2676625518316
 30
0.0
 10
210.888871207273
 20
451.2415167242898
 30
0.0
 10
210.8435949504601
 20
451.2153708967444
 30
0.0
 10
210.7983186573938
 20
451.1892251323742
 30
0.0
 10
210.6629743586637
 20
451.1110676706238
 30
0.0
 10
210.5276297359806
 20
451.0329107733841
 30
0.0
 10
210.3922851132975
 20
450.9547538761462
 30
0.0
  0
LINE
  5
AA
330
70
100
AcDbEntity
  8
0
 62
    18
420
        0
370
     9
100
AcDbLine
 10
211.1884368934306
 20
454.762773562582
 30
0.0
 11
211.1884368934306
 21
453.9627735625808
 31
0.0
  0
LINE
  5
AB
330
70
100
AcDbEntity
  8
0
 62
    18
420
        0
370
     9
100
AcDbLine
 10
249.1884368934307
 20
453.9627735625808
 30
0.0
 11
249.1884368934307
 21
454.762773562582
 31
0.0
  0
LINE
  5
AC
330
70
100
AcDbEntity
  8
0
 62
    18
420
        0
370
     9
100
AcDbLine
 10
211.2010166711307
 20
448.7921033894808
 30
0.0
 11
211.2010166711307
 21
448.7627735625819
 31
0.0
  0
LINE
  5
AD
330
70
100
AcDbEntity
  8
0
 62
    18
420
        0
370
     9
100
AcDbLine
 10
249.1765379336293
 20
449.168995375282
 30
0.0
 11
249.1765379336293
 21
449.5416682293807
 31
0.0
  0
LINE
  5
AE
330
70
100
AcDbEntity
  8
0
 62
    18
420
        0
370
     9
100
AcDbLine
 10
249.1765379336293
 20
450.668995375282
 30
0.0
 11
249.1765379336293
 21
451.0416682293807
 31
0.0
  0
LINE
  5
AF
330
70
100
AcDbEntity
  8
0
 62
    18
420
        0
370
     9
100
AcDbLine
 10
211.2010166711307
 20
450.2921033894808
 30
0.0
 11
211.2010166711307
 21
449.9217722170806
 31
0.0
  0
LINE
  5
B0
330
70
100
AcDbEntity
  8
0
 62
    18
420
        0
370
     9
100
AcDbLine
 10
211.2384368934308
 20
452.7627735625819
 30
0.0
 11
211.2384368934308
 21
451.2627735625819
 31
0.0
  0
LINE
  5
B1
330
70
100
AcDbEntity
  8
0
 62
    18
420
        0
370
     9
100
AcDbLine
 10
249.1384368934296
 20
451.2627735625819
 30
0.0
 11
249.1384368934296
 21
452.7627735625819
 31
0.0
  0
LINE
  5
B2
330
70
100
AcDbEntity
  8
0
 62
    18
420
        0
370
     9
100
AcDbLine
 10
230.1884368934306
 20
453.9627735625808
 30
0.0
 11
210.2884368934301
 21
453.9627735625808
 31
0.0
  0
LINE
  5
B3
330
70
100
AcDbEntity
  8
0
 62
    18
420
        0
370
     9
100
AcDbLine
 10
250.0884368934303
 20
453.9627735625808
 30
0.0
 11
230.1884368934306
 21
453.9627735625808
 31
0.0
  0
LINE
  5
B4
330
70
100
AcDbEntity
  8
0
 62
    18
420
        0
370
     9
100
AcDbLine
 10
230.1884368934306
 20
452.7627735625819
 30
0.0
 11
250.0884368934303
 21
452.7627735625819
 31
0.0
  0
LINE
  5
B5
330
70
100
AcDbEntity
  8
0
 62
    18
420
        0
370
     9
100
AcDbLine
 10
210.2884368934301
 20
452.7627735625819
 30
0.0
 11
230.1884368934306
 21
452.7627735625819
 31
0.0
  0
SPLINE
  5
B6
330
70
100
AcDbEntity
  8
0
 62
    18
420
        0
370
     9
100
AcDbSpline
210
0.0
220
0.0
230
1.0
 70
     8
 71
     3
 72
   149
 73
   145
 74
     0
 42
0.0000000001
 43
0.0000000001
 40
0.0
 40
0.0
 40
0.0
 40
0.0
 40
1.0
 40
1.0
 40
1.0
 40
2.0
 40
2.0
 40
2.0
 40
3.0
 40
3.0
 40
3.0
 40
4.0
 40
4.0
 40
4.0
 40
5.0
 40
5.0
 40
5.0
 40
6.0
 40
6.0
 40
6.0
 40
7.0
 40
7.0
 40
7.0
 40
8.0
 40
8.0
 40
8.0
 40
9.0
 40
9.0
 40
9.0
 40
10.0
 40
10.0
 40
10.0
 40
11.0
 40
11.0
 40
11.0
 40
12.0
 40
12.0
 40
12.0
 40
13.0
 40
13.0
 40
13.0
 40
14.0
 40
14.0
 40
14.0
 40
15.0
 40
15.0
 40
15.0
 40
16.0
 40
16.0
 40
16.0
 40
17.0
 40
17.0
 40
17.0
 40
18.0
 40
18.0
 40
18.0
 40
19.0
 40
19.0
 40
19.0
 40
20.0
 40
20.0
 40
20.0
 40
21.0
 40
21.0
 40
21.0
 40
22.0
 40
22.0
 40
22.0
 40
23.0
 40
23.0
 40
23.0
 40
24.0
 40
24.0
 40
24.0
 40
25.0
 40
25.0
 40
25.0
 40
26.0
 40
26.0
 40
26.0
 40
27.0
 40
27.0
 40
27.0
 40
28.0
 40
28.0
 40
28.0
 40
29.0
 40
29.0
 40
29.0
 40
30.0
 40
30.0
 40
30.0
 40
31.0
 40
31.0
 40
31.0
 40
32.0
 40
32.0
 40
32.0
 40
33.0
 40
33.0
 40
33.0
 40
34.0
 40
34.0
 40
34.0
 40
35.0
 40
35.0
 40
35.0
 40
36.0
 40
36.0
 40
36.0
 40
37.0
 40
37.0
 40
37.0
 40
38.0
 40
38.0
 40
38.0
 40
39.0
 40
39.0
 40
39.0
 40
40.0
 40
40.0
 40
40.0
 40
41.0
 40
41.0
 40
41.0
 40
42.0
 40
42.0
 40
42.0
 40
43.0
 40
43.0
 40
43.0
 40
44.0
 40
44.0
 40
44.0
 40
45.0
 40
45.0
 40
45.0
 40
46.0
 40
46.0
 40
46.0
 40
47.0
 40
47.0
 40
47.0
 40
48.0
 40
48.0
 40
48.0
 40
48.0
 10
225.0066609786308
 20
451.2624194844238
 30
0.0
 10
224.7660011461603
 20
451.259351902353
 30
0.0
 10
224.5253413136916
 20
451.2562843202822
 30
0.0
 10
224.2864069422422
 20
451.2532164557005
 30
0.0
 10
224.0189414492261
 20
451.2497822578143
 30
0.0
 10
223.7536380942356
 20
451.2463477059164
 30
0.0
 10
223.4902360635015
 20
451.2429129152724
 30
0.0
 10
223.198737717943
 20
451.2391117456745
 30
0.0
 10
222.9095679468983
 20
451.2353102836796
 30
0.0
 10
222.6232318545981
 20
451.2315088631394
 30
0.0
 10
222.4191198338831
 20
451.228799055857
 30
0.0
 10
222.2164477239703
 20
451.2260892696385
 30
0.0
 10
222.0152894564108
 20
451.2233793284203
 30
0.0
 10
221.8022819467924
 20
451.2205097579217
 30
0.0
 10
221.5909718782523
 20
451.217640013624
 30
0.0
 10
221.3815224992413
 20
451.2147704108038
 30
0.0
 10
221.3247384003835
 20
451.2139924289795
 30
0.0
 10
221.2680910647196
 20
451.2132144575507
 30
0.0
 10
221.2115814388089
 20
451.2124364765322
 30
0.0
 10
221.1542763561511
 20
451.2116475442772
 30
0.0
 10
221.0971128874708
 20
451.2108586021595
 30
0.0
 10
221.0400941864855
 20
451.2100696594216
 30
0.0
 10
220.9822840043025
 20
451.2092697653051
 30
0.0
 10
220.9246226367714
 20
451.2084698705557
 30
0.0
 10
220.8671128315864
 20
451.2076699594681
 30
0.0
 10
220.8088156579379
 20
451.2068590967764
 30
0.0
 10
220.7506742251326
 20
451.2060482172974
 30
0.0
 10
220.6926912512508
 20
451.2052373766773
 30
0.0
 10
220.6339251527889
 20
451.2044155847534
 30
0.0
 10
220.5753218224827
 20
451.2035938327435
 30
0.0
 10
220.5168851441986
 20
451.2027719110437
 30
0.0
 10
220.457669731496
 20
451.2019390363138
 30
0.0
 10
220.3986254420606
 20
451.2011059873393
 30
0.0
 10
220.3397520640337
 20
451.200273562571
 30
0.0
 10
219.9236847238617
 20
451.1943906869555
 30
0.0
 10
219.5161535013804
 20
451.188538987003
 30
0.0
 10
219.1184126836561
 20
451.1827269644518
 30
0.0
 10
218.7206726261465
 20
451.1769149530109
 30
0.0
 10
218.3327229359675
 20
451.1711426188185
 30
0.0
 10
217.9555263276443
 20
451.1654074477364
 30
0.0
 10
217.578330430877
 20
451.1596722874774
 30
0.0
 10
217.211887575395
 20
451.1539742901868
 30
0.0
 10
216.8572333824841
 20
451.148315012425
 30
0.0
 10
216.6231328989834
 20
451.1445794308738
 30
0.0
 10
216.3941688169462
 20
451.1408607196853
 30
0.0
 10
216.1705761485718
 20
451.1371584003109
 30
0.0
 10
215.946983752413
 20
451.1334560854439
 30
0.0
 10
215.7287627568394
 20
451.1297701623452
 30
0.0
 10
215.5161693768814
 20
451.1261007048552
 30
0.0
 10
215.3290833684614
 20
451.122871516086
 30
0.0
 10
215.1463555642022
 20
451.1196550788072
 30
0.0
 10
214.9681664265263
 20
451.1164517567149
 30
0.0
 10
214.9481641504726
 20
451.1160921740074
 30
0.0
 10
214.9282190650192
 20
451.1157327565588
 30
0.0
 10
214.9083310899259
 20
451.1153734931004
 30
0.0
 10
214.888443117181
 20
451.1150142296838
 30
0.0
 10
214.8686122547824
 20
451.1146551202573
 30
0.0
 10
214.8488388066216
 20
451.1142961945761
 30
0.0
 10
214.8290653607946
 20
451.1139372689386
 30
0.0
 10
214.8093493291935
 20
451.113578527048
 30
0.0
 10
214.7896909122746
 20
451.1132198611403
 30
0.0
 10
214.7700324976731
 20
451.1128611952763
 30
0.0
 10
214.7504316977411
 20
451.112502605395
 30
0.0
 10
214.7308887348117
 20
451.1121444927985
 30
0.0
 10
214.7113457741852
 20
451.1117863802419
 30
0.0
 10
214.6918606505469
 20
451.1114287449664
 30
0.0
 10
214.6724335944
 20
451.1110700895433
 30
0.0
 10
214.6530065405404
 20
451.1107114341639
 30
0.0
 10
214.6336375541569
 20
451.1103517586352
 30
0.0
 10
214.6143268034157
 20
451.109996651382
 30
0.0
 10
214.5950160549437
 20
451.1096415441689
 30
0.0
 10
214.5757635421005
 20
451.1092910052311
 30
0.0
 10
214.5565696664107
 20
451.1089241783093
 30
0.0
 10
214.5556046833553
 20
451.1089057358758
 30
0.0
 10
214.554639848513
 20
451.1088872522732
 30
0.0
 10
214.5536751621476
 20
451.1088686841276
 30
0.0
 10
214.5461916835475
 20
451.1087246431952
 30
0.0
 10
214.5387171399025
 20
451.1085755146587
 30
0.0
 10
214.531251504025
 20
451.1084266093558
 30
0.0
 10
214.5106142278846
 20
451.1080149900472
 30
0.0
 10
214.4900450192736
 20
451.1076050765323
 30
0.0
 10
214.469544165172
 20
451.1071941277978
 30
0.0
 10
214.4369148121614
 20
451.1065400579127
 30
0.0
 10
214.4044586162054
 20
451.1058833655907
 30
0.0
 10
214.3721766651834
 20
451.1052267336371
 30
0.0
 10
214.3278954200423
 20
451.1043260296928
 30
0.0
 10
214.2839420287319
 20
451.1034254393335
 30
0.0
 10
214.2403190262403
 20
451.1025244268703
 30
0.0
 10
214.1637676235523
 20
451.1009432938944
 30
0.0
 10
214.0882336414961
 20
451.0993608610651
 30
0.0
 10
214.0137319939086
 20
451.0977781538013
 30
0.0
 10
213.9187791040813
 20
451.0957609819188
 30
0.0
 10
213.825503106078
 20
451.0937433642493
 30
0.0
 10
213.733933196997
 20
451.0917253694324
 30
0.0
 10
213.6226413430559
 20
451.0892727473137
 30
0.0
 10
213.5138696185768
 20
451.0868195680914
 30
0.0
 10
213.4076669169854
 20
451.0843660737691
 30
0.0
 10
213.266379550716
 20
451.081102053683
 30
0.0
 10
213.1296389598665
 20
451.0778374759129
 30
0.0
 10
212.997559441932
 20
451.0745725724145
 30
0.0
 10
212.843413710938
 20
451.0707622092022
 30
0.0
 10
212.6956165797237
 20
451.0669514023311
 30
0.0
 10
212.554328754678
 20
451.0631401832916
 30
0.0
 10
212.3928169508854
 20
451.0587834252937
 30
0.0
 10
212.2398113111503
 20
451.0544261286804
 30
0.0
 10
212.0955494879336
 20
451.0500689063983
 30
0.0
 10
211.9904333222212
 20
451.0468940227792
 30
0.0
 10
211.8899594994991
 20
451.0437191786214
 30
0.0
 10
211.7941946556266
 20
451.040544080929
 30
0.0
 10
211.6912603476967
 20
451.0371312785837
 30
0.0
 10
211.5937664898229
 20
451.0337181833192
 30
0.0
 10
211.5018147828114
 20
451.0303053559464
 30
0.0
 10
211.4802906863479
 20
451.0295064797965
 30
0.0
 10
211.4590702645846
 20
451.0287076183258
 30
0.0
 10
211.4381537512927
 20
451.0279087463632
 30
0.0
 10
211.4169235279751
 20
451.027097892761
 30
0.0
 10
211.3960063976529
 20
451.0262870283504
 30
0.0
 10
211.3754036329837
 20
451.0254761593414
 30
0.0
 10
211.3544964300927
 20
451.0246533084637
 30
0.0
 10
211.33391295199
 20
451.0238304528511
 30
0.0
 10
211.313654180035
 20
451.0230075948738
 30
0.0
 10
211.2931004120337
 20
451.0221727549314
 30
0.0
 10
211.27288087538
 20
451.0213379125552
 30
0.0
 10
211.2529967424425
 20
451.0205030529605
 30
0.0
 10
211.2328272244413
 20
451.0196562111295
 30
0.0
 10
211.2130028069432
 20
451.0188093515816
 30
0.0
 10
211.1935242584059
 20
451.0179625336085
 30
0.0
 10
211.1737701016646
 20
451.0171037337358
 30
0.0
 10
211.1543716707474
 20
451.0162449766221
 30
0.0
 10
211.1353312429173
 20
451.0153860368109
 30
0.0
 10
211.116025164868
 20
451.0145151131537
 30
0.0
 10
211.0970871492418
 20
451.013644001664
 30
0.0
 10
211.0785137744806
 20
451.012773562571
 30
0.0
 10
210.9529869446624
 20
451.0068907619761
 30
0.0
 10
210.8441155819419
 20
451.0010386738876
 30
0.0
 10
210.7526780137632
 20
450.9952269644482
 30
0.0
 10
210.661240620353
 20
450.9894152661172
 30
0.0
 10
210.5872369548406
 20
450.9836439462806
 30
0.0
 10
210.5294688490285
 20
450.9779074477328
 30
0.0
 10
210.471700852192
 20
450.9721709600044
 30
0.0
 10
210.4301683538006
 20
450.9664692934302
 30
0.0
 10
210.41006489138
 20
450.9608150124177
 30
0.0
 10
210.3971339109976
 20
450.9571780569886
 30
0.0
 10
210.3930688507471
 20
450.9535607065727
 30
0.0
 10
210.3890037904966
 20
450.9499433561568
 30
0.0
  0
SPLINE
  5
B7
330
70
100
AcDbEntity
  8
0
 62
    18
420
        0
370
     9
100
AcDbSpline
210
0.0
220
0.0
230
1.0
 70
     8
 71
     3
 72
   404
 73
   400
 74
     0
 42
0.0000000001
 43
0.0000000001
 40
0.0
 40
0.0
 40
0.0
 40
0.0
 40
1.0
 40
1.0
 40
1.0
 40
2.0
 40
2.0
 40
2.0
 40
3.0
 40
3.0
 40
3.0
 40
4.0
 40
4.0
 40
4.0
 40
5.0
 40
5.0
 40
5.0
 40
6.0
 40
6.0
 40
6.0
 40
7.0
 40
7.0
 40
7.0
 40
8.0
 40
8.0
 40
8.0
 40
9.0
 40
9.0
 40
9.0
 40
10.0
 40
10.0
 40
10.0
 40
11.0
 40
11.0
 40
11.0
 40
12.0
 40
12.0
 40
12.0
 40
13.0
 40
13.0
 40
13.0
 40
14.0
 40
14.0
 40
14.0
 40
15.0
 40
15.0
 40
15.0
 40
16.0
 40
16.0
 40
16.0
 40
17.0
 40
17.0
 40
17.0
 40
18.0
 40
18.0
 40
18.0
 40
19.0
 40
19.0
 40
19.0
 40
20.0
 40
20.0
 40
20.0
 40
21.0
 40
21.0
 40
21.0
 40
22.0
 40
22.0
 40
22.0
 40
23.0
 40
23.0
 40
23.0
 40
24.0
 40
24.0
 40
24.0
 40
25.0
 40
25.0
 40
25.0
 40
26.0
 40
26.0
 40
26.0
 40
27.0
 40
27.0
 40
27.0
 40
28.0
 40
28.0
 40
28.0
 40
29.0
 40
29.0
 40
29.0
 40
30.0
 40
30.0
 40
30.0
 40
31.0
 40
31.0
 40
31.0
 40
32.0
 40
32.0
 40
32.0
 40
33.0
 40
33.0
 40
33.0
 40
34.0
 40
34.0
 40
34.0
 40
35.0
 40
35.0
 40
35.0
 40
36.0
 40
36.0
 40
36.0
 40
37.0
 40
37.0
 40
37.0
 40
38.0
 40
38.0
 40
38.0
 40
39.0
 40
39.0
 40
39.0
 40
40.0
 40
40.0
 40
40.0
 40
41.0
 40
41.0
 40
41.0
 40
42.0
 40
42.0
 40
42.0
 40
43.0
 40
43.0
 40
43.0
 40
44.0
 40
44.0
 40
44.0
 40
45.0
 40
45.0
 40
45.0
 40
46.0
 40
46.0
 40
46.0
 40
47.0
 40
47.0
 40
47.0
 40
48.0
 40
48.0
 40
48.0
 40
49.0
 40
49.0
 40
49.0
 40
50.0
 40
50.0
 40
50.0
 40
51.0
 40
51.0
 40
51.0
 40
52.0
 40
52.0
 40
52.0
 40
53.0
 40
53.0
 40
53.0
 40
54.0
 40
54.0
 40
54.0
 40
55.0
 40
55.0
 40
55.0
 40
56.0
 40
56.0
 40
56.0
 40
57.0
 40
57.0
 40
57.0
 40
58.0
 40
58.0
 40
58.0
 40
59.0
 40
59.0
 40
59.0
 40
60.0
 40
60.0
 40
60.0
 40
61.0
 40
61.0
 40
61.0
 40
62.0
 40
62.0
 40
62.0
 40
63.0
 40
63.0
 40
63.0
 40
64.0
 40
64.0
 40
64.0
 40
65.0
 40
65.0
 40
65.0
 40
66.0
 40
66.0
 40
66.0
 40
67.0
 40
67.0
 40
67.0
 40
68.0
 40
68.0
 40
68.0
 40
69.0
 40
69.0
 40
69.0
 40
70.0
 40
70.0
 40
70.0
 40
71.0
 40
71.0
 40
71.0
 40
72.0
 40
72.0
 40
72.0
 40
73.0
 40
73.0
 40
73.0
 40
74.0
 40
74.0
 40
74.0
 40
75.0
 40
75.0
 40
75.0
 40
76.0
 40
76.0
 40
76.0
 40
77.0
 40
77.0
 40
77.0
 40
78.0
 40
78.0
 40
78.0
 40
79.0
 40
79.0
 40
79.0
 40
80.0
 40
80.0
 40
80.0
 40
81.0
 40
81.0
 40
81.0
 40
82.0
 40
82.0
 40
82.0
 40
83.0
 40
83.0
 40
83.0
 40
84.0
 40
84.0
 40
84.0
 40
85.0
 40
85.0
 40
85.0
 40
86.0
 40
86.0
 40
86.0
 40
87.0
 40
87.0
 40
87.0
 40
88.0
 40
88.0
 40
88.0
 40
89.0
 40
89.0
 40
89.0
 40
90.0
 40
90.0
 40
90.0
 40
91.0
 40
91.0
 40
91.0
 40
92.0
 40
92.0
 40
92.0
 40
93.0
 40
93.0
 40
93.0
 40
94.0
 40
94.0
 40
94.0
 40
95.0
 40
95.0
 40
95.0
 40
96.0
 40
96.0
 40
96.0
 40
97.0
 40
97.0
 40
97.0
 40
98.0
 40
98.0
 40
98.0
 40
99.0
 40
99.0
 40
99.0
 40
100.0
 40
100.0
 40
100.0
 40
101.0
 40
101.0
 40
101.0
 40
102.0
 40
102.0
 40
102.0
 40
103.0
 40
103.0
 40
103.0
 40
104.0
 40
104.0
 40
104.0
 40
105.0
 40
105.0
 40
105.0
 40
106.0
 40
106.0
 40
106.0
 40
107.0
 40
107.0
 40
107.0
 40
108.0
 40
108.0
 40
108.0
 40
109.0
 40
109.0
 40
109.0
 40
110.0
 40
110.0
 40
110.0
 40
111.0
 40
111.0
 40
111.0
 40
112.0
 40
112.0
 40
112.0
 40
113.0
 40
113.0
 40
113.0
 40
114.0
 40
114.0
 40
114.0
 40
115.0
 40
115.0
 40
115.0
 40
116.0
 40
116.0
 40
116.0
 40
117.0
 40
117.0
 40
117.0
 40
118.0
 40
118.0
 40
118.0
 40
119.0
 40
119.0
 40
119.0
 40
120.0
 40
120.0
 40
120.0
 40
121.0
 40
121.0
 40
121.0
 40
122.0
 40
122.0
 40
122.0
 40
123.0
 40
123.0
 40
123.0
 40
124.0
 40
124.0
 40
124.0
 40
125.0
 40
125.0
 40
125.0
 40
126.0
 40
126.0
 40
126.0
 40
127.0
 40
127.0
 40
127.0
 40
128.0
 40
128.0
 40
128.0
 40
129.0
 40
129.0
 40
129.0
 40
130.0
 40
130.0
 40
130.0
 40
131.0
 40
131.0
 40
131.0
 40
132.0
 40
132.0
 40
132.0
 40
133.0
 40
133.0
 40
133.0
 40
133.0
 10
249.9874491162309
 20
450.2001131861807
 30
0.0
 10
249.9877763500108
 20
450.199943511644
 30
0.0
 10
249.9881035837907
 20
450.1997738371056
 30
0.0
 10
249.9883890315441
 20
450.199604193861
 30
0.0
 10
249.9945684632448
 20
450.195931721998
 30
0.0
 10
249.9811650906186
 20
450.1922739155043
 30
0.0
 10
249.9638992926366
 20
450.1886189516763
 30
0.0
 10
249.948705072874
 20
450.1854025162892
 30
0.0
 10
249.9305196658925
 20
450.182188282356
 30
0.0
 10
249.9053005897904
 20
450.1789796769362
 30
0.0
 10
249.9024696734896
 20
450.1786195014346
 30
0.0
 10
249.8995501278214
 20
450.1782593968573
 30
0.0
 10
249.89656228687
 20
450.1778993384895
 30
0.0
 10
249.8935744460405
 20
450.1775392801382
 30
0.0
 10
249.8905183099369
 20
450.1771792679964
 30
0.0
 10
249.8873884724135
 20
450.17681932721
 30
0.0
 10
249.8842586350193
 20
450.1764593864382
 30
0.0
 10
249.8810550962144
 20
450.176099517018
 30
0.0
 10
249.8777793491454
 20
450.1757396430975
 30
0.0
 10
249.874503602211
 20
450.1753797691881
 30
0.0
 10
249.871155647018
 20
450.1750198907748
 30
0.0
 10
249.8677351294091
 20
450.1746602861485
 30
0.0
 10
249.8643146119384
 20
450.1743006815386
 30
0.0
 10
249.8608215320555
 20
450.1739413507157
 30
0.0
 10
249.8572560351613
 20
450.1735812563701
 30
0.0
 10
249.8536905384126
 20
450.1732211620356
 30
0.0
 10
249.8500526246562
 20
450.1728603041765
 30
0.0
 10
249.8463422979703
 20
450.1725025537552
 30
0.0
 10
249.8426319714372
 20
450.1721448033485
 30
0.0
 10
249.8388492319782
 20
450.1717901603797
 30
0.0
 10
249.8349941590104
 20
450.1714241783092
 30
0.0
 10
249.8347721792352
 20
450.1714031046167
 30
0.0
 10
249.8345499596317
 20
450.1713819933311
 30
0.0
 10
249.8343275002508
 20
450.1713607962292
 30
0.0
 10
249.8327337998007
 20
450.1712089400544
 30
0.0
 10
249.8311277932544
 20
450.1710526796296
 30
0.0
 10
249.8295094766954
 20
450.1708965602183
 30
0.0
 10
249.825156921489
 20
450.1704766681095
 30
0.0
 10
249.8207153191351
 20
450.1700577960718
 30
0.0
 10
249.8161847315887
 20
450.1696380360745
 30
0.0
 10
249.8090432123017
 20
450.1689763726417
 30
0.0
 10
249.8016805924172
 20
450.1683125029112
 30
0.0
 10
249.7940971253347
 20
450.1676486058777
 30
0.0
 10
249.7837411679966
 20
450.1667419903087
 30
0.0
 10
249.7729733628248
 20
450.1658353238298
 30
0.0
 10
249.7617943217674
 20
450.1649282696298
 30
0.0
 10
249.7422335766851
 20
450.1633411338616
 30
0.0
 10
249.7214137534402
 20
450.1617528110172
 30
0.0
 10
249.6993388911205
 20
450.1601641896622
 30
0.0
 10
249.6712598665008
 20
450.1581434777135
 30
0.0
 10
249.6411502377041
 20
450.1561222827867
 30
0.0
 10
249.6090194092367
 20
450.154100721159
 30
0.0
 10
249.5700182470255
 20
450.1516469016742
 30
0.0
 10
249.5280391137776
 20
450.1491925419022
 30
0.0
 10
249.4831003388508
 20
450.1467378641164
 30
0.0
 10
249.4233719091144
 20
450.1434753352614
 30
0.0
 10
249.3584151989771
 20
450.1402122446225
 30
0.0
 10
249.2882838280721
 20
450.1369488301561
 30
0.0
 10
249.2064943849082
 20
450.1331429320443
 30
0.0
 10
249.1176669017505
 20
450.1293365935007
 30
0.0
 10
249.0218947830808
 20
450.1255298432142
 30
0.0
 10
248.9124726104174
 20
450.1211805305638
 30
0.0
 10
248.7939851428973
 20
450.1168306804365
 30
0.0
 10
248.6666185179974
 20
450.1124809032908
 30
0.0
 10
248.5738458351143
 20
450.1093125654652
 30
0.0
 10
248.4763622867313
 20
450.1061442663585
 30
0.0
 10
248.3742332504307
 20
450.1029757146998
 30
0.0
 10
248.2644842990767
 20
450.0995707553038
 30
0.0
 10
248.149370793667
 20
450.0961655042656
 30
0.0
 10
248.0290126975114
 20
450.0927605185888
 30
0.0
 10
248.0008428781121
 20
450.0919635814925
 30
0.0
 10
247.9723857630206
 20
450.0911666589336
 30
0.0
 10
247.9436419334624
 20
450.0903697259263
 30
0.0
 10
247.9144683073219
 20
450.0895608766504
 30
0.0
 10
247.8849993283211
 20
450.0887520166116
 30
0.0
 10
247.8552366870854
 20
450.0879431519597
 30
0.0
 10
247.8250355718365
 20
450.087122370819
 30
0.0
 10
247.794532077939
 20
450.0863015849272
 30
0.0
 10
247.763727700144
 20
450.0854807966889
 30
0.0
 10
247.7324760900583
 20
450.0846480918653
 30
0.0
 10
247.7009147959134
 20
450.0838153846244
 30
0.0
 10
247.6690455472117
 20
450.0829826601139
 30
0.0
 10
247.6367202275569
 20
450.0821380187399
 30
0.0
 10
247.6040780761969
 20
450.0812933595962
 30
0.0
 10
247.5711206914011
 20
450.0804487422365
 30
0.0
 10
247.537698318155
 20
450.0795922083552
 30
0.0
 10
247.5039517536088
 20
450.0787357174476
 30
0.0
 10
247.4698835420941
 20
450.0778790430549
 30
0.0
 10
247.4353413570943
 20
450.0770104501925
 30
0.0
 10
247.4004685130503
 20
450.0761416687082
 30
0.0
 10
247.3652645146894
 20
450.075273562571
 30
0.0
 10
247.1267021637168
 20
450.0693907807572
 30
0.0
 10
246.8729325780814
 20
450.0635390121051
 30
0.0
 10
246.6047264862236
 20
450.0577269644408
 30
0.0
 10
246.3365209069989
 20
450.0519149278834
 30
0.0
 10
246.053878876738
 20
450.0461426121646
 30
0.0
 10
245.7575055582265
 20
450.0404074477183
 30
0.0
 10
245.4611327988032
 20
450.0346722940912
 30
0.0
 10
245.151028802934
 20
450.0289742915984
 30
0.0
 10
244.8280753093741
 20
450.0233150124031
 30
0.0
 10
244.6148998542367
 20
450.019579429906
 30
0.0
 10
244.3961257844685
 20
450.0158607194162
 30
0.0
 10
244.1719836587445
 20
450.0121584002926
 30
0.0
 10
243.9478418059071
 20
450.0084560856767
 30
0.0
 10
243.718331910185
 20
450.0047701623907
 30
0.0
 10
243.4837204903661
 20
450.0011007048424
 30
0.0
 10
243.2772582097777
 20
449.9978715160241
 30
0.0
 10
243.0668451470001
 20
449.9946550787963
 30
0.0
 10
242.8526923754771
 20
449.9914517567094
 30
0.0
 10
242.8286530714568
 20
449.9910921740002
 30
0.0
 10
242.8045666443022
 20
449.9907327565534
 30
0.0
 10
242.7804330272438
 20
449.9903734930949
 30
0.0
 10
242.7562994130358
 20
449.9900142296783
 30
0.0
 10
242.732118608933
 20
449.9896551202501
 30
0.0
 10
242.7078909763941
 20
449.9892961945724
 30
0.0
 10
242.6836633467146
 20
449.9889372689349
 30
0.0
 10
242.6593888886064
 20
449.9885785270444
 30
0.0
 10
242.6350678515691
 20
449.9882198611366
 30
0.0
 10
242.6107468173987
 20
449.9878611952726
 30
0.0
 10
242.5863792043101
 20
449.9875026053932
 30
0.0
 10
242.5619652877204
 20
449.9871444927948
 30
0.0
 10
242.5375513740064
 20
449.9867863802383
 30
0.0
 10
242.5130911568003
 20
449.9864287449645
 30
0.0
 10
242.4885849260672
 20
449.9860700895433
 30
0.0
 10
242.4640786982191
 20
449.9857114341639
 30
0.0
 10
242.4395264568529
 20
449.9853517586334
 30
0.0
 10
242.4149284140758
 20
449.9849966513802
 30
0.0
 10
242.3903303741909
 20
449.9846415441671
 30
0.0
 10
242.3656865329076
 20
449.9842910052275
 30
0.0
 10
242.3409974054039
 20
449.9839241783092
 30
0.0
 10
242.3397561451975
 20
449.9839057358721
 30
0.0
 10
242.3385147705257
 20
449.9838872522659
 30
0.0
 10
242.3372732817306
 20
449.9838686841167
 30
0.0
 10
242.3276425311879
 20
449.9837246431771
 30
0.0
 10
242.3180049130178
 20
449.9835755146314
 30
0.0
 10
242.3083603923087
 20
449.9834266093175
 30
0.0
 10
242.2817000203458
 20
449.9830149899999
 30
0.0
 10
242.2549869035656
 20
449.9826050764722
 30
0.0
 10
242.2282214130873
 20
449.9821941277287
 30
0.0
 10
242.1856212062148
 20
449.9815400578326
 30
0.0
 10
242.1428883252165
 20
449.9808833655033
 30
0.0
 10
242.1000242028104
 20
449.980226733539
 30
0.0
 10
242.0412273630782
 20
449.9793260295873
 30
0.0
 10
241.9821835836128
 20
449.9784254392206
 30
0.0
 10
241.9228962458847
 20
449.9775244267502
 30
0.0
 10
241.8188564368893
 20
449.9759432937653
 30
0.0
 10
241.7140665988782
 20
449.9743608609305
 30
0.0
 10
241.6085472772929
 20
449.9727781536558
 30
0.0
 10
241.4740621375049
 20
449.9707609817715
 30
0.0
 10
241.3383920474216
 20
449.9687433640984
 30
0.0
 10
241.2015793992387
 20
449.9667253692759
 30
0.0
 10
241.0353006141513
 20
449.9642727471555
 30
0.0
 10
240.8673341126259
 20
449.9618195679331
 30
0.0
 10
240.6977546042372
 20
449.959366073609
 30
0.0
 10
240.4721535439594
 20
449.9561020535248
 30
0.0
 10
240.2436977096031
 20
449.9528374757565
 30
0.0
 10
240.0125771721387
 20
449.9495725722599
 30
0.0
 10
239.7428438726993
 20
449.9457622090512
 30
0.0
 10
239.4694811227373
 20
449.9419514021893
 30
0.0
 10
239.1927819532711
 20
449.9381401831533
 30
0.0
 10
238.8764759876203
 20
449.9337834251628
 30
0.0
 10
238.555810090068
 20
449.9294261285604
 30
0.0
 10
238.2312862138215
 20
449.9250689062874
 30
0.0
 10
237.994822367903
 20
449.9218940226755
 30
0.0
 10
237.7563102104387
 20
449.9187191785267
 30
0.0
 10
237.5159093359262
 20
449.9155440808417
 30
0.0
 10
237.2575107771763
 20
449.9121312785091
 30
0.0
 10
236.9969301167266
 20
449.9087181832556
 30
0.0
 10
236.7344397986444
 20
449.9053053558882
 30
0.0
 10
236.6729959482827
 20
449.9045064797419
 30
0.0
 10
236.6114474608012
 20
449.9037076182749
 30
0.0
 10
236.5497953992117
 20
449.9029087463159
 30
0.0
 10
236.4872186677485
 20
449.9020978927173
 30
0.0
 10
236.4245352320277
 20
449.9012870283122
 30
0.0
 10
236.3617487679339
 20
449.9004761592978
 30
0.0
 10
236.2980345351798
 20
449.89965330842
 30
0.0
 10
236.2342142067455
 20
449.8988304527983
 30
0.0
 10
236.1702909111837
 20
449.8980075948375
 30
0.0
 10
236.1054368030591
 20
449.8971727549169
 30
0.0
 10
236.040476707286
 20
449.8963379125917
 30
0.0
 10
235.9754141929143
 20
449.8955030529351
 30
0.0
 10
235.9094178752084
 20
449.8946562110386
 30
0.0
 10
235.8433161779021
 20
449.8938093513088
 30
0.0
 10
235.7771124049277
 20
449.8929625335904
 30
0.0
 10
235.709971893627
 20
449.8921037339778
 30
0.0
 10
235.6427263976193
 20
449.8912449775734
 30
0.0
 10
235.5753808381678
 20
449.8903860368018
 30
0.0
 10
235.5070956799455
 20
449.8895151121714
 30
0.0
 10
235.4387076466492
 20
449.8886439979969
 30
0.0
 10
235.3702163550797
 20
449.887773562571
 30
0.0
 10
234.9073228398984
 20
449.8818907867453
 30
0.0
 10
234.4397128626779
 20
449.8760390137113
 30
0.0
 10
233.9688173998065
 20
449.8702269644446
 30
0.0
 10
233.497922836973
 20
449.8644149262881
 30
0.0
 10
233.0237428010505
 20
449.8586426117462
 30
0.0
 10
232.5474569083717
 20
449.8529074477255
 30
0.0
 10
232.0711719141718
 20
449.8471722945241
 30
0.0
 10
231.592781071161
 20
449.8414742917002
 30
0.0
 10
231.1136400875157
 20
449.8358150124122
 30
0.0
 10
230.7973682424954
 20
449.8320794298551
 30
0.0
 10
230.4807695560348
 20
449.828360719407
 30
0.0
 10
230.1641732458256
 20
449.8246584002999
 30
0.0
 10
229.8475773210603
 20
449.8209560857003
 30
0.0
 10
229.5309837725408
 20
449.8172701623998
 30
0.0
 10
229.2147622263065
 20
449.8136007048478
 30
0.0
 10
228.9364815626623
 20
449.8103715160241
 30
0.0
 10
228.6584889893957
 20
449.8071550787999
 30
0.0
 10
228.3810613648429
 20
449.8039517567113
 30
0.0
 10
228.3499192649169
 20
449.8035921740038
 30
0.0
 10
228.3187842837679
 20
449.8032327565551
 30
0.0
 10
228.2876563174387
 20
449.8028734930985
 30
0.0
 10
228.2565283547856
 20
449.8025142296819
 30
0.0
 10
228.2254074069524
 20
449.8021551202537
 30
0.0
 10
228.1942939444097
 20
449.8017961945724
 30
0.0
 10
228.1631804855379
 20
449.8014372689349
 30
0.0
 10
228.1320745119583
 20
449.8010785270444
 30
0.0
 10
228.1009763418324
 20
449.8007198611403
 30
0.0
 10
228.0698781753736
 20
449.8003611952762
 30
0.0
 10
228.0387878123684
 20
449.8000026053951
 30
0.0
 10
228.0077056047803
 20
449.7996444927948
 30
0.0
 10
227.9766234008539
 20
449.7992863802401
 30
0.0
 10
227.9455493523428
 20
449.7989287449663
 30
0.0
 10
227.9144838272705
 20
449.7985700895433
 30
0.0
 10
227.8834183058543
 20
449.7982114341639
 30
0.0
 10
227.8523613078751
 20
449.7978517586334
 30
0.0
 10
227.821313102223
 20
449.7974966513821
 30
0.0
 10
227.7902649002235
 20
449.7971415441688
 30
0.0
 10
227.7592254905512
 20
449.7967910052311
 30
0.0
 10
227.7281955214121
 20
449.7964241783092
 30
0.0
 10
227.7266354721114
 20
449.7964057358776
 30
0.0
 10
227.7250754466741
 20
449.7963872522769
 30
0.0
 10
227.7235154455275
 20
449.7963686841313
 30
0.0
 10
227.7114138588031
 20
449.7962246432025
 30
0.0
 10
227.6993137339023
 20
449.7960755146696
 30
0.0
 10
227.6872150269128
 20
449.7959266093703
 30
0.0
 10
227.6537705400997
 20
449.7955149900653
 30
0.0
 10
227.6203368880806
 20
449.7951050765541
 30
0.0
 10
227.5869145362039
 20
449.794694127825
 30
0.0
 10
227.5337192050274
 20
449.7940400579418
 30
0.0
 10
227.4805524996073
 20
449.7933833656252
 30
0.0
 10
227.427416202273
 20
449.7927267336735
 30
0.0
 10
227.3545289901004
 20
449.7918260297328
 30
0.0
 10
227.2816989928369
 20
449.7909254393771
 30
0.0
 10
227.2089303940511
 20
449.7900244269176
 30
0.0
 10
227.0812331242878
 20
449.7884432939417
 30
0.0
 10
226.9537249289542
 20
449.7868608611161
 30
0.0
 10
226.8264308815442
 20
449.785278153854
 30
0.0
 10
226.6641936953501
 20
449.7832609819734
 30
0.0
 10
226.5023043643477
 20
449.7812433643075
 30
0.0
 10
226.3408135098134
 20
449.7792253694924
 30
0.0
 10
226.1445414288673
 20
449.776772747372
 30
0.0
 10
225.9488579528161
 20
449.7743195681533
 30
0.0
 10
225.7538504821759
 20
449.771866073831
 30
0.0
 10
225.4944211877218
 20
449.768602053743
 30
0.0
 10
225.2361883188887
 20
449.7653374759729
 30
0.0
 10
224.979367096671
 20
449.7620725724727
 30
0.0
 10
224.6796393594186
 20
449.7582622092586
 30
0.0
 10
224.3818343510238
 20
449.7544514023856
 30
0.0
 10
224.0862729123264
 20
449.7506401833443
 30
0.0
 10
223.7484047266343
 20
449.746283425341
 30
0.0
 10
223.4134683698385
 20
449.7419261287277
 30
0.0
 10
223.0819868219605
 20
449.7375689064401
 30
0.0
 10
222.8404532786635
 20
449.7343940228156
 30
0.0
 10
222.6007539925167
 20
449.7312191786577
 30
0.0
 10
222.3630489329107
 20
449.7280440809618
 30
0.0
 10
222.1075480119498
 20
449.7246312786146
 30
0.0
 10
221.854351091547
 20
449.7212181833465
 30
0.0
 10
221.6037227304769
 20
449.7178053559682
 30
0.0
 10
221.5450555322732
 20
449.7170064798165
 30
0.0
 10
221.4865290748221
 20
449.716207618344
 30
0.0
 10
221.4281442758038
 20
449.7154087463832
 30
0.0
 10
221.3688838099597
 20
449.714597892781
 30
0.0
 10
221.3097692836573
 20
449.7137870283722
 30
0.0
 10
221.2508041928067
 20
449.7129761593559
 30
0.0
 10
221.1909678000848
 20
449.7121533084746
 30
0.0
 10
221.1312852917317
 20
449.7113304528475
 30
0.0
 10
221.0717595863834
 20
449.7105075948848
 30
0.0
 10
221.0113671035333
 20
449.7096727549606
 30
0.0
 10
220.9511360234774
 20
449.7088379126316
 30
0.0
 10
220.8910696512385
 20
449.7080030529714
 30
0.0
 10
220.8301411822977
 20
449.7071562110713
 30
0.0
 10
220.769382183008
 20
449.7063093513379
 30
0.0
 10
220.7087957147424
 20
449.705462533614
 30
0.0
 10
220.647351989187
 20
449.704603733996
 30
0.0
 10
220.5860857115904
 20
449.703744977588
 30
0.0
 10
220.5250012792821
 20
449.7028860368145
 30
0.0
 10
220.4630646028445
 20
449.7020151121805
 30
0.0
 10
220.4013148812683
 20
449.7011439980005
 30
0.0
 10
220.3397520640337
 20
449.700273562571
 30
0.0
 10
219.9236841511747
 20
449.6943907867489
 30
0.0
 10
219.5161533480805
 20
449.6885390137149
 30
0.0
 10
219.1184126836561
 20
449.68272696445
 30
0.0
 10
218.7206727794455
 20
449.6769149262936
 30
0.0
 10
218.3327229764809
 20
449.6711426117535
 30
0.0
 10
217.9555263276443
 20
449.6654074477328
 30
0.0
 10
217.5783303903627
 20
449.6596722945314
 30
0.0
 10
217.2118875666401
 20
449.6539742917075
 30
0.0
 10
216.8572333824841
 20
449.6483150124213
 30
0.0
 10
216.6231329047632
 20
449.6445794298624
 30
0.0
 10
216.3941688184823
 20
449.6408607194162
 30
0.0
 10
216.1705761485718
 20
449.6371584003072
 30
0.0
 10
215.9469837508768
 20
449.6334560857057
 30
0.0
 10
215.7287627564738
 20
449.6297701624053
 30
0.0
 10
215.5161693768814
 20
449.6261007048533
 30
0.0
 10
215.3290833687825
 20
449.6228715160277
 30
0.0
 10
215.1463555642213
 20
449.6196550788035
 30
0.0
 10
214.9681664265263
 20
449.6164517567149
 30
0.0
 10
214.9481641504708
 20
449.6160921740075
 30
0.0
 10
214.9282190650192
 20
449.6157327565588
 30
0.0
 10
214.9083310899259
 20
449.6153734930985
 30
0.0
 10
214.8884431171818
 20
449.6150142296819
 30
0.0
 10
214.8686122547824
 20
449.6146551202537
 30
0.0
 10
214.8488388066216
 20
449.6142961945761
 30
0.0
 10
214.8290653607946
 20
449.6139372689385
 30
0.0
 10
214.8093493291935
 20
449.613578527048
 30
0.0
 10
214.7896909122746
 20
449.6132198611404
 30
0.0
 10
214.7700324976731
 20
449.6128611952762
 30
0.0
 10
214.7504316977411
 20
449.6125026053951
 30
0.0
 10
214.7308887348117
 20
449.6121444927985
 30
0.0
 10
214.7113457741844
 20
449.6117863802419
 30
0.0
 10
214.6918606505469
 20
449.6114287449663
 30
0.0
 10
214.6724335944
 20
449.6110700895433
 30
0.0
 10
214.6530065405404
 20
449.6107114341639
 30
0.0
 10
214.6336375541569
 20
449.610351758637
 30
0.0
 10
214.6143268034157
 20
449.6099966513821
 30
0.0
 10
214.5950160549437
 20
449.6096415441688
 30
0.0
 10
214.5757635421005
 20
449.6092910052275
 30
0.0
 10
214.5565696664107
 20
449.6089241783092
 30
0.0
 10
214.5556046832344
 20
449.608905735874
 30
0.0
 10
214.5546398482711
 20
449.6088872522696
 30
0.0
 10
214.5536751617846
 20
449.6088686841203
 30
0.0
 10
214.5461916828444
 20
449.6087246431825
 30
0.0
 10
214.5387171388602
 20
449.6085755146404
 30
0.0
 10
214.5312515026444
 20
449.6084266093303
 30
0.0
 10
214.5106142261075
 20
449.6080149900144
 30
0.0
 10
214.4900450171035
 20
449.6076050764923
 30
0.0
 10
214.4695441626118
 20
449.6071941277505
 30
0.0
 10
214.4369148092746
 20
449.6065400578581
 30
0.0
 10
214.4044586129957
 20
449.6058833655324
 30
0.0
 10
214.3721766616545
 20
449.6052267335699
 30
0.0
 10
214.3278954162597
 20
449.6043260296219
 30
0.0
 10
214.2839420246992
 20
449.603425439257
 30
0.0
 10
214.240319021962
 20
449.6025244267884
 30
0.0
 10
214.1637676190476
 20
449.6009432938053
 30
0.0
 10
214.0882336367731
 20
449.5993608609742
 30
0.0
 10
214.0137319889736
 20
449.597778153703
 30
0.0
 10
213.91877909905
 20
449.5957609818169
 30
0.0
 10
213.8255031009567
 20
449.5937433641475
 30
0.0
 10
213.733933191791
 20
449.591725369325
 30
0.0
 10
213.6226413378799
 20
449.5892727472046
 30
0.0
 10
213.5138696134327
 20
449.586819567984
 30
0.0
 10
213.4076669118767
 20
449.58436607366
 30
0.0
 10
213.2663795457756
 20
449.5811020535756
 30
0.0
 10
213.1296389550926
 20
449.5778374758056
 30
0.0
 10
212.9975594373227
 20
449.574572572309
 30
0.0
 10
212.8434137066215
 20
449.5707622090986
 30
0.0
 10
212.6956165756883
 20
449.5669514022329
 30
0.0
 10
212.5543287509108
 20
449.5631401831969
 30
0.0
 10
212.3928169475048
 20
449.5587834252046
 30
0.0
 10
212.2398113081308
 20
449.5544261286004
 30
0.0
 10
212.0955494852497
 20
449.5500689063219
 30
0.0
 10
211.9904333198156
 20
449.5468940227083
 30
0.0
 10
211.8899594973555
 20
449.5437191785576
 30
0.0
 10
211.7941946537276
 20
449.5405440808708
 30
0.0
 10
211.6912603460824
 20
449.537131278531
 30
0.0
 10
211.5937664884714
 20
449.5337181832756
 30
0.0
 10
211.5018147816982
 20
449.5303053559064
 30
0.0
 10
211.4802906852938
 20
449.5295064797601
 30
0.0
 10
211.4590702635869
 20
449.5287076182912
 30
0.0
 10
211.4381537503514
 20
449.5279087463305
 30
0.0
 10
211.416923527092
 20
449.5270978927319
 30
0.0
 10
211.3960063968252
 20
449.5262870283213
 30
0.0
 10
211.3754036322107
 20
449.5254761593123
 30
0.0
 10
211.3544964293769
 20
449.5246533084382
 30
0.0
 10
211.3339129513288
 20
449.5238304528275
 30
0.0
 10
211.3136541794265
 20
449.5230075948484
 30
0.0
 10
211.2931004114807
 20
449.5221727549096
 30
0.0
 10
211.2728808748807
 20
449.5213379125353
 30
0.0
 10
211.2529967419941
 20
449.5205030529441
 30
0.0
 10
211.2328272240465
 20
449.5196562111131
 30
0.0
 10
211.2130028066003
 20
449.5188093515671
 30
0.0
 10
211.1935242581139
 20
449.5179625335959
 30
0.0
 10
211.1737701014235
 20
449.5171037337268
 30
0.0
 10
211.1543716705564
 20
449.516244976613
 30
0.0
 10
211.1353312427746
 20
449.5153860368036
 30
0.0
 10
211.1160251647743
 20
449.5145151131501
 30
0.0
 10
211.0970871491954
 20
449.513644001664
 30
0.0
 10
211.0785137744806
 20
449.512773562571
 30
0.0
 10
210.9529869446624
 20
449.5068907619743
 30
0.0
 10
210.8441155819419
 20
449.5010386738859
 30
0.0
 10
210.7526780137632
 20
449.4952269644463
 30
0.0
 10
210.661240620353
 20
449.4894152661136
 30
0.0
 10
210.5872369548406
 20
449.4836439462769
 30
0.0
 10
210.5294688490285
 20
449.4779074477273
 30
0.0
 10
210.471700852192
 20
449.4721709599989
 30
0.0
 10
210.4301683538006
 20
449.4664692934265
 30
0.0
 10
210.41006489138
 20
449.4608150124141
 30
0.0
 10
210.3971339109976
 20
449.4571780569831
 30
0.0
 10
210.3930688507471
 20
449.453560706569
 30
0.0
 10
210.3890037904966
 20
449.4499433561531
 30
0.0
  0
LINE
  5
B8
330
70
100
AcDbEntity
  8
0
 62
    18
420
        0
370
     9
100
AcDbLine
 10
225.0345297734302
 20
451.2627735625819
 30
0.0
 11
225.0066609786291
 21
451.2627735625819
 31
0.0
  0
LINE
  5
B9
330
70
100
AcDbEntity
  8
0
 62
    18
420
        0
370
     9
100
AcDbLine
 10
240.0371214331308
 20
451.2627735625819
 30
0.0
 11
225.0345297742306
 21
451.2627735625819
 31
0.0
  0
SPLINE
  5
BA
330
70
100
AcDbEntity
  8
0
 62
    18
420
        0
370
     9
100
AcDbSpline
210
0.0
220
0.0
230
1.0
 70
     8
 71
     3
 72
   248
 73
   244
 74
     0
 42
0.0000000001
 43
0.0000000001
 40
0.0
 40
0.0
 40
0.0
 40
0.0
 40
1.0
 40
1.0
 40
1.0
 40
2.0
 40
2.0
 40
2.0
 40
3.0
 40
3.0
 40
3.0
 40
4.0
 40
4.0
 40
4.0
 40
5.0
 40
5.0
 40
5.0
 40
6.0
 40
6.0
 40
6.0
 40
7.0
 40
7.0
 40
7.0
 40
8.0
 40
8.0
 40
8.0
 40
9.0
 40
9.0
 40
9.0
 40
10.0
 40
10.0
 40
10.0
 40
11.0
 40
11.0
 40
11.0
 40
12.0
 40
12.0
 40
12.0
 40
13.0
 40
13.0
 40
13.0
 40
14.0
 40
14.0
 40
14.0
 40
15.0
 40
15.0
 40
15.0
 40
16.0
 40
16.0
 40
16.0
 40
17.0
 40
17.0
 40
17.0
 40
18.0
 40
18.0
 40
18.0
 40
19.0
 40
19.0
 40
19.0
 40
20.0
 40
20.0
 40
20.0
 40
21.0
 40
21.0
 40
21.0
 40
22.0
 40
22.0
 40
22.0
 40
23.0
 40
23.0
 40
23.0
 40
24.0
 40
24.0
 40
24.0
 40
25.0
 40
25.0
 40
25.0
 40
26.0
 40
26.0
 40
26.0
 40
27.0
 40
27.0
 40
27.0
 40
28.0
 40
28.0
 40
28.0
 40
29.0
 40
29.0
 40
29.0
 40
30.0
 40
30.0
 40
30.0
 40
31.0
 40
31.0
 40
31.0
 40
32.0
 40
32.0
 40
32.0
 40
33.0
 40
33.0
 40
33.0
 40
34.0
 40
34.0
 40
34.0
 40
35.0
 40
35.0
 40
35.0
 40
36.0
 40
36.0
 40
36.0
 40
37.0
 40
37.0
 40
37.0
 40
38.0
 40
38.0
 40
38.0
 40
39.0
 40
39.0
 40
39.0
 40
40.0
 40
40.0
 40
40.0
 40
41.0
 40
41.0
 40
41.0
 40
42.0
 40
42.0
 40
42.0
 40
43.0
 40
43.0
 40
43.0
 40
44.0
 40
44.0
 40
44.0
 40
45.0
 40
45.0
 40
45.0
 40
46.0
 40
46.0
 40
46.0
 40
47.0
 40
47.0
 40
47.0
 40
48.0
 40
48.0
 40
48.0
 40
49.0
 40
49.0
 40
49.0
 40
50.0
 40
50.0
 40
50.0
 40
51.0
 40
51.0
 40
51.0
 40
52.0
 40
52.0
 40
52.0
 40
53.0
 40
53.0
 40
53.0
 40
54.0
 40
54.0
 40
54.0
 40
55.0
 40
55.0
 40
55.0
 40
56.0
 40
56.0
 40
56.0
 40
57.0
 40
57.0
 40
57.0
 40
58.0
 40
58.0
 40
58.0
 40
59.0
 40
59.0
 40
59.0
 40
60.0
 40
60.0
 40
60.0
 40
61.0
 40
61.0
 40
61.0
 40
62.0
 40
62.0
 40
62.0
 40
63.0
 40
63.0
 40
63.0
 40
64.0
 40
64.0
 40
64.0
 40
65.0
 40
65.0
 40
65.0
 40
66.0
 40
66.0
 40
66.0
 40
67.0
 40
67.0
 40
67.0
 40
68.0
 40
68.0
 40
68.0
 40
69.0
 40
69.0
 40
69.0
 40
70.0
 40
70.0
 40
70.0
 40
71.0
 40
71.0
 40
71.0
 40
72.0
 40
72.0
 40
72.0
 40
73.0
 40
73.0
 40
73.0
 40
74.0
 40
74.0
 40
74.0
 40
75.0
 40
75.0
 40
75.0
 40
76.0
 40
76.0
 40
76.0
 40
77.0
 40
77.0
 40
77.0
 40
78.0
 40
78.0
 40
78.0
 40
79.0
 40
79.0
 40
79.0
 40
80.0
 40
80.0
 40
80.0
 40
81.0
 40
81.0
 40
81.0
 40
81.0
 10
240.0371251983916
 20
451.2624194844638
 30
0.0
 10
239.8187880360883
 20
451.259351902393
 30
0.0
 10
239.600450873787
 20
451.2562843203222
 30
0.0
 10
239.3793159180541
 20
451.2532164557406
 30
0.0
 10
239.1317752666791
 20
451.2497822578543
 30
0.0
 10
238.8807287606478
 20
451.2463477059563
 30
0.0
 10
238.6273379027052
 20
451.2429129153088
 30
0.0
 10
238.3469185921486
 20
451.2391117457109
 30
0.0
 10
238.0636281258221
 20
451.2353102837141
 30
0.0
 10
237.7774928627923
 20
451.2315088631685
 30
0.0
 10
237.573524001381
 20
451.2287990558861
 30
0.0
 10
237.3681095796665
 20
451.226089269664
 30
0.0
 10
237.1613972844416
 20
451.223379328444
 30
0.0
 10
236.9425085867833
 20
451.2205097579417
 30
0.0
 10
236.7221646095795
 20
451.2176400136422
 30
0.0
 10
236.5005110778993
 20
451.2147704108201
 30
0.0
 10
236.440418295032
 20
451.213992428994
 30
0.0
 10
236.3802292581413
 20
451.2132144575653
 30
0.0
 10
236.3199457014334
 20
451.2124364765468
 30
0.0
 10
236.2588135643064
 20
451.2116475442899
 30
0.0
 10
236.1975842276179
 20
451.2108586021704
 30
0.0
 10
236.1362608641148
 20
451.2100696594306
 30
0.0
 10
236.0740862660432
 20
451.2092697653161
 30
0.0
 10
236.0118150126518
 20
451.2084698705648
 30
0.0
 10
235.94945013495
 20
451.207669959479
 30
0.0
 10
235.8862314178414
 20
451.2068590967837
 30
0.0
 10
235.822916495249
 20
451.2060482173028
 30
0.0
 10
235.7595082861144
 20
451.2052373766827
 30
0.0
 10
235.6952436785641
 20
451.204415584757
 30
0.0
 10
235.6308832475761
 20
451.2035938327471
 30
0.0
 10
235.5664313500429
 20
451.2027719110474
 30
0.0
 10
235.5011205585352
 20
451.2019390363157
 30
0.0
 10
235.4357158464454
 20
451.2011059873412
 30
0.0
 10
235.3702166772864
 20
451.200273562571
 30
0.0
 10
234.9073238376486
 20
451.194390686941
 30
0.0
 10
234.4397133686134
 20
451.1885389869739
 30
0.0
 10
233.9688177266589
 20
451.18272696441
 30
0.0
 10
233.497922984744
 20
451.1769149529546
 30
0.0
 10
233.0237430824682
 20
451.1711426187494
 30
0.0
 10
232.5474572381217
 20
451.1654074476564
 30
0.0
 10
232.0711722922561
 20
451.1596722873846
 30
0.0
 10
231.5927814122651
 20
451.153974290085
 30
0.0
 10
231.1136404184081
 20
451.1483150123122
 30
0.0
 10
230.7973685666466
 20
451.1445794307538
 30
0.0
 10
230.4807698851082
 20
451.1408607195617
 30
0.0
 10
230.1641735765106
 20
451.1371584001799
 30
0.0
 10
229.8475776533551
 20
451.1334560853056
 30
0.0
 10
229.5309841031349
 20
451.1297701622015
 30
0.0
 10
229.2147625560237
 20
451.1261007047078
 30
0.0
 10
228.9364818916047
 20
451.122871515935
 30
0.0
 10
228.6584893182016
 20
451.1196550786507
 30
0.0
 10
228.3810616930814
 20
451.1164517565548
 30
0.0
 10
228.3499195930917
 20
451.1160921738474
 30
0.0
 10
228.3187846118735
 20
451.1157327563987
 30
0.0
 10
228.2876566454752
 20
451.1153734929385
 30
0.0
 10
228.256528682753
 20
451.1150142295218
 30
0.0
 10
228.2254077348489
 20
451.1146551200936
 30
0.0
 10
228.1942942722353
 20
451.1142961944123
 30
0.0
 10
228.1631808132943
 20
451.1139372687749
 30
0.0
 10
228.132074839642
 20
451.1135785268843
 30
0.0
 10
228.1009766694433
 20
451.1132198609766
 30
0.0
 10
228.0698785029099
 20
451.1128611951126
 30
0.0
 10
228.0387881398301
 20
451.1125026052313
 30
0.0
 10
228.0077059321657
 20
451.1121444926311
 30
0.0
 10
227.9766237281647
 20
451.1117863800746
 30
0.0
 10
227.9455496795754
 20
451.1114287447989
 30
0.0
 10
227.9144841544248
 20
451.1110700893778
 30
0.0
 10
227.8834186329305
 20
451.1107114340002
 30
0.0
 10
227.8523616348693
 20
451.110351758477
 30
0.0
 10
227.8213134291391
 20
451.1099966512147
 30
0.0
 10
227.7902652270577
 20
451.1096415439924
 30
0.0
 10
227.7592258173036
 20
451.1092910050311
 30
0.0
 10
227.7281958480826
 20
451.1089241781401
 30
0.0
 10
227.7266357945655
 20
451.1089057356612
 30
0.0
 10
227.7250757649099
 20
451.1088872520113
 30
0.0
 10
227.7235157595469
 20
451.1088686838165
 30
0.0
 10
227.7114141609664
 20
451.1087246427568
 30
0.0
 10
227.6993140242093
 20
451.1085755140875
 30
0.0
 10
227.6872153053673
 20
451.1084266086463
 30
0.0
 10
227.6537708046026
 20
451.1080149891886
 30
0.0
 10
227.6203371386391
 20
451.1076050755154
 30
0.0
 10
227.5869147728272
 20
451.1071941266227
 30
0.0
 10
227.5337194298345
 20
451.1065400566085
 30
0.0
 10
227.4805527126073
 20
451.1058833641572
 30
0.0
 10
227.4274164034787
 20
451.1052267320692
 30
0.0
 10
227.354529181629
 20
451.104326028023
 30
0.0
 10
227.2816991747013
 20
451.1034254375545
 30
0.0
 10
227.2089305662621
 20
451.1025244249822
 30
0.0
 10
227.0812332869255
 20
451.1009432919045
 30
0.0
 10
226.9537250820313
 20
451.0993608589715
 30
0.0
 10
226.8264310250861
 20
451.0977781516003
 30
0.0
 10
226.6641938331113
 20
451.0957609796596
 30
0.0
 10
226.5023044963391
 20
451.0937433619319
 30
0.0
 10
226.3408136360494
 20
451.0917253670513
 30
0.0
 10
226.1445415530861
 20
451.0892727449163
 30
0.0
 10
225.9488580750067
 20
451.0868195656794
 30
0.0
 10
225.7538506023329
 20
451.0843660713353
 30
0.0
 10
225.4944213100052
 20
451.0811020512837
 30
0.0
 10
225.2361884432421
 20
451.0778374735482
 30
0.0
 10
224.9793672230344
 20
451.074572570079
 30
0.0
 10
224.6796394923795
 20
451.0707622069558
 30
0.0
 10
224.3818344904457
 20
451.0669514001738
 30
0.0
 10
224.0862730580456
 20
451.0631401812179
 30
0.0
 10
223.7484048831493
 20
451.058783423362
 30
0.0
 10
223.4134685368744
 20
451.0544261268905
 30
0.0
 10
223.0819869991956
 20
451.0500689047503
 30
0.0
 10
222.8404534650199
 20
451.0468940212531
 30
0.0
 10
222.6007541877971
 20
451.0437191772207
 30
0.0
 10
222.3630491368977
 20
451.0405440796485
 30
0.0
 10
222.1075482264932
 20
451.0371312774541
 30
0.0
 10
221.8543513163731
 20
451.033718182337
 30
0.0
 10
221.6037229652793
 20
451.0303053551078
 30
0.0
 10
221.5450557695612
 20
451.0295064789962
 30
0.0
 10
221.4865293145777
 20
451.0287076175599
 30
0.0
 10
221.4281445180104
 20
451.0279087456356
 30
0.0
 10
221.3688840547056
 20
451.0270978920734
 30
0.0
 10
221.3097695309243
 20
451.0262870277029
 30
0.0
 10
221.2508044425767
 20
451.025476158723
 30
0.0
 10
221.1909680524459
 20
451.0246533078816
 30
0.0
 10
221.1312855466631
 20
451.0238304522963
 30
0.0
 10
221.0717598438659
 20
451.0230075943718
 30
0.0
 10
221.0113673636542
 20
451.0221727544876
 30
0.0
 10
220.9511362862158
 20
451.0213379122006
 30
0.0
 10
220.8910699165727
 20
451.0205030525821
 30
0.0
 10
220.8301414503148
 20
451.0196562107221
 30
0.0
 10
220.7693824536846
 20
451.0188093510323
 30
0.0
 10
220.7087959880564
 20
451.0179625333503
 30
0.0
 10
220.6473522652232
 20
451.0171037337777
 30
0.0
 10
220.586085990326
 20
451.0162449774115
 30
0.0
 10
220.5250015606925
 20
451.0153860366799
 30
0.0
 10
220.4630648870143
 20
451.0145151120914
 30
0.0
 10
220.401315168172
 20
451.0136439979569
 30
0.0
 10
220.339752353646
 20
451.012773562571
 30
0.0
 10
219.9236844365159
 20
451.0068907867307
 30
0.0
 10
219.5161536289033
 20
451.0010390136804
 30
0.0
 10
219.1184129597305
 20
450.9952269644009
 30
0.0
 10
218.7206730507705
 20
450.9894149262281
 30
0.0
 10
218.3327232428264
 20
450.9836426116753
 30
0.0
 10
217.9555265887921
 20
450.9779074476418
 30
0.0
 10
217.5783306463145
 20
450.9721722944259
 30
0.0
 10
217.2118878171759
 20
450.966474291591
 30
0.0
 10
216.8572336274046
 20
450.9608150122958
 30
0.0
 10
216.6231331459776
 20
450.9570794297315
 30
0.0
 10
216.3941690559022
 20
450.9533607192779
 30
0.0
 10
216.1705763821146
 20
450.9496584001653
 30
0.0
 10
215.9469839805424
 20
450.9459560855602
 30
0.0
 10
215.7287629821785
 20
450.9422701622542
 30
0.0
 10
215.5161695985471
 20
450.9386007046987
 30
0.0
 10
215.3290835868938
 20
450.9353715158713
 30
0.0
 10
215.1463557787174
 20
450.9321550786398
 30
0.0
 10
214.9681666373508
 20
450.9289517565512
 30
0.0
 10
214.9481643608833
 20
450.9285921738419
 30
0.0
 10
214.9282192750188
 20
450.928232756395
 30
0.0
 10
214.9083312995117
 20
450.9278734929348
 30
0.0
 10
214.8884433263538
 20
450.9275142295182
 30
0.0
 10
214.8686124635396
 20
450.92715512009
 30
0.0
 10
214.8488390149651
 20
450.9267961944088
 30
0.0
 10
214.8290655687224
 20
450.9264372687712
 30
0.0
 10
214.8093495367056
 20
450.9260785268806
 30
0.0
 10
214.7896911193702
 20
450.9257198609748
 30
0.0
 10
214.7700327043521
 20
450.9253611951089
 30
0.0
 10
214.7504319040026
 20
450.9250026052296
 30
0.0
 10
214.7308889406559
 20
450.9246444926311
 30
0.0
 10
214.711345979611
 20
450.9242863800728
 30
0.0
 10
214.6918608555552
 20
450.9239287447972
 30
0.0
 10
214.672433798989
 20
450.923570089376
 30
0.0
 10
214.6530067447093
 20
450.9232114339965
 30
0.0
 10
214.6336377579064
 20
450.9228517584733
 30
0.0
 10
214.6143270067441
 20
450.9224966512128
 30
0.0
 10
214.595016257852
 20
450.9221415439924
 30
0.0
 10
214.5757637445877
 20
450.9217910050347
 30
0.0
 10
214.556569868475
 20
450.9214241781401
 30
0.0
 10
214.5556048831831
 20
450.9214057356648
 30
0.0
 10
214.5546400461053
 20
450.9213872520222
 30
0.0
 10
214.5536753575043
 20
450.9213686838347
 30
0.0
 10
214.5461918725268
 20
450.9212246427914
 30
0.0
 10
214.5387173225208
 20
450.9210755141384
 30
0.0
 10
214.531251680296
 20
450.9209266087155
 30
0.0
 10
214.5106143964813
 20
450.9205149892759
 30
0.0
 10
214.4900451802423
 20
450.9201050756228
 30
0.0
 10
214.4695443185619
 20
450.9196941267519
 30
0.0
 10
214.436914958892
 20
450.919040056754
 30
0.0
 10
214.4044587563403
 20
450.9183833643174
 30
0.0
 10
214.3721767987863
 20
450.9177267322475
 30
0.0
 10
214.3278955480464
 20
450.916826028214
 30
0.0
 10
214.2839421512062
 20
450.9159254377618
 30
0.0
 10
214.2403191432568
 20
450.9150244252041
 30
0.0
 10
214.1637677347444
 20
450.9134432921373
 30
0.0
 10
214.0882337469839
 20
450.9118608592189
 30
0.0
 10
214.0137320938138
 20
450.9102781518622
 30
0.0
 10
213.9187792000448
 20
450.9082609799288
 30
0.0
 10
213.8255031981862
 20
450.9062433622084
 30
0.0
 10
213.7339332853407
 20
450.9042253673369
 30
0.0
 10
213.622641429225
 20
450.9017727452037
 30
0.0
 10
213.513869702595
 20
450.8993195659704
 30
0.0
 10
213.407666998879
 20
450.89686607163
 30
0.0
 10
213.2663796320203
 20
450.8936020515748
 30
0.0
 10
213.1296390404841
 20
450.8903374738356
 30
0.0
 10
212.9975595217648
 20
450.8870725703627
 30
0.0
 10
212.8434137917138
 20
450.8832622072286
 30
0.0
 10
212.6956166611553
 20
450.8794514004357
 30
0.0
 10
212.5543288364706
 20
450.8756401814707
 30
0.0
 10
212.3928170345507
 20
450.8712834235985
 30
0.0
 10
212.239811396149
 20
450.8669261271107
 30
0.0
 10
212.0955495737107
 20
450.8625689049504
 30
0.0
 10
211.9904334091907
 20
450.8593940214405
 30
0.0
 10
211.8899595873108
 20
450.8562191773917
 30
0.0
 10
211.7941947439258
 20
450.8530440798049
 30
0.0
 10
211.691260436929
 20
450.8496312775924
 30
0.0
 10
211.5937665795355
 20
450.846218182457
 30
0.0
 10
211.5018148725403
 20
450.8428053552115
 30
0.0
 10
211.4802907761287
 20
450.8420064790944
 30
0.0
 10
211.459070354389
 20
450.8412076176564
 30
0.0
 10
211.4381538410953
 20
450.8404087457265
 30
0.0
 10
211.4169236177913
 20
450.8395978921571
 30
0.0
 10
211.3960064874545
 20
450.8387870277792
 30
0.0
 10
211.3754037227427
 20
450.8379761587994
 30
0.0
 10
211.3544965198244
 20
450.837153307958
 30
0.0
 10
211.3339130416644
 20
450.83633045238
 30
0.0
 10
211.3136542696229
 20
450.8355075944336
 30
0.0
 10
211.2931005015489
 20
450.8346727545276
 30
0.0
 10
211.2728809647915
 20
450.833837912186
 30
0.0
 10
211.2529968317176
 20
450.8330030526276
 30
0.0
 10
211.2328273135945
 20
450.8321562108313
 30
0.0
 10
211.2130028959418
 20
450.8313093513197
 30
0.0
 10
211.1935243472171
 20
450.830462533383
 30
0.0
 10
211.1737701902984
 20
450.8296037335485
 30
0.0
 10
211.1543717591721
 20
450.8287449764711
 30
0.0
 10
211.1353313310965
 20
450.8278860366963
 30
0.0
 10
211.1160252528116
 20
450.8270151130773
 30
0.0
 10
211.0970872369135
 20
450.8261440016276
 30
0.0
 10
211.0785138618485
 20
450.825273562571
 30
0.0
 10
210.9529870241604
 20
450.8193907619597
 30
0.0
 10
210.8441156536192
 20
450.8135386738604
 30
0.0
 10
210.7526780773387
 20
450.8077269644063
 30
0.0
 10
210.6612406758259
 20
450.8019152660627
 30
0.0
 10
210.5872370019315
 20
450.7961439462114
 30
0.0
 10
210.5294688885979
 20
450.7904074476527
 30
0.0
 10
210.4717008842399
 20
450.7846709599134
 30
0.0
 10
210.4301683791891
 20
450.778969293332
 30
0.0
 10
210.4100649068587
 20
450.7733150123049
 30
0.0
 10
210.3971339154823
 20
450.7696780555661
 30
0.0
 10
210.3930688492273
 20
450.7660607038551
 30
0.0
 10
210.3890037829733
 20
450.7624433521441
 30
0.0
  0
SPLINE
  5
BB
330
70
100
AcDbEntity
  8
0
 62
    18
420
        0
370
     9
100
AcDbSpline
210
0.0
220
0.0
230
1.0
 70
     8
 71
     3
 72
   401
 73
   397
 74
     0
 42
0.0000000001
 43
0.0000000001
 40
0.0
 40
0.0
 40
0.0
 40
0.0
 40
1.0
 40
1.0
 40
1.0
 40
2.0
 40
2.0
 40
2.0
 40
3.0
 40
3.0
 40
3.0
 40
4.0
 40
4.0
 40
4.0
 40
5.0
 40
5.0
 40
5.0
 40
6.0
 40
6.0
 40
6.0
 40
7.0
 40
7.0
 40
7.0
 40
8.0
 40
8.0
 40
8.0
 40
9.0
 40
9.0
 40
9.0
 40
10.0
 40
10.0
 40
10.0
 40
11.0
 40
11.0
 40
11.0
 40
12.0
 40
12.0
 40
12.0
 40
13.0
 40
13.0
 40
13.0
 40
14.0
 40
14.0
 40
14.0
 40
15.0
 40
15.0
 40
15.0
 40
16.0
 40
16.0
 40
16.0
 40
17.0
 40
17.0
 40
17.0
 40
18.0
 40
18.0
 40
18.0
 40
19.0
 40
19.0
 40
19.0
 40
20.0
 40
20.0
 40
20.0
 40
21.0
 40
21.0
 40
21.0
 40
22.0
 40
22.0
 40
22.0
 40
23.0
 40
23.0
 40
23.0
 40
24.0
 40
24.0
 40
24.0
 40
25.0
 40
25.0
 40
25.0
 40
26.0
 40
26.0
 40
26.0
 40
27.0
 40
27.0
 40
27.0
 40
28.0
 40
28.0
 40
28.0
 40
29.0
 40
29.0
 40
29.0
 40
30.0
 40
30.0
 40
30.0
 40
31.0
 40
31.0
 40
31.0
 40
32.0
 40
32.0
 40
32.0
 40
33.0
 40
33.0
 40
33.0
 40
34.0
 40
34.0
 40
34.0
 40
35.0
 40
35.0
 40
35.0
 40
36.0
 40
36.0
 40
36.0
 40
37.0
 40
37.0
 40
37.0
 40
38.0
 40
38.0
 40
38.0
 40
39.0
 40
39.0
 40
39.0
 40
40.0
 40
40.0
 40
40.0
 40
41.0
 40
41.0
 40
41.0
 40
42.0
 40
42.0
 40
42.0
 40
43.0
 40
43.0
 40
43.0
 40
44.0
 40
44.0
 40
44.0
 40
45.0
 40
45.0
 40
45.0
 40
46.0
 40
46.0
 40
46.0
 40
47.0
 40
47.0
 40
47.0
 40
48.0
 40
48.0
 40
48.0
 40
49.0
 40
49.0
 40
49.0
 40
50.0
 40
50.0
 40
50.0
 40
51.0
 40
51.0
 40
51.0
 40
52.0
 40
52.0
 40
52.0
 40
53.0
 40
53.0
 40
53.0
 40
54.0
 40
54.0
 40
54.0
 40
55.0
 40
55.0
 40
55.0
 40
56.0
 40
56.0
 40
56.0
 40
57.0
 40
57.0
 40
57.0
 40
58.0
 40
58.0
 40
58.0
 40
59.0
 40
59.0
 40
59.0
 40
60.0
 40
60.0
 40
60.0
 40
61.0
 40
61.0
 40
61.0
 40
62.0
 40
62.0
 40
62.0
 40
63.0
 40
63.0
 40
63.0
 40
64.0
 40
64.0
 40
64.0
 40
65.0
 40
65.0
 40
65.0
 40
66.0
 40
66.0
 40
66.0
 40
67.0
 40
67.0
 40
67.0
 40
68.0
 40
68.0
 40
68.0
 40
69.0
 40
69.0
 40
69.0
 40
70.0
 40
70.0
 40
70.0
 40
71.0
 40
71.0
 40
71.0
 40
72.0
 40
72.0
 40
72.0
 40
73.0
 40
73.0
 40
73.0
 40
74.0
 40
74.0
 40
74.0
 40
75.0
 40
75.0
 40
75.0
 40
76.0
 40
76.0
 40
76.0
 40
77.0
 40
77.0
 40
77.0
 40
78.0
 40
78.0
 40
78.0
 40
79.0
 40
79.0
 40
79.0
 40
80.0
 40
80.0
 40
80.0
 40
81.0
 40
81.0
 40
81.0
 40
82.0
 40
82.0
 40
82.0
 40
83.0
 40
83.0
 40
83.0
 40
84.0
 40
84.0
 40
84.0
 40
85.0
 40
85.0
 40
85.0
 40
86.0
 40
86.0
 40
86.0
 40
87.0
 40
87.0
 40
87.0
 40
88.0
 40
88.0
 40
88.0
 40
89.0
 40
89.0
 40
89.0
 40
90.0
 40
90.0
 40
90.0
 40
91.0
 40
91.0
 40
91.0
 40
92.0
 40
92.0
 40
92.0
 40
93.0
 40
93.0
 40
93.0
 40
94.0
 40
94.0
 40
94.0
 40
95.0
 40
95.0
 40
95.0
 40
96.0
 40
96.0
 40
96.0
 40
97.0
 40
97.0
 40
97.0
 40
98.0
 40
98.0
 40
98.0
 40
99.0
 40
99.0
 40
99.0
 40
100.0
 40
100.0
 40
100.0
 40
101.0
 40
101.0
 40
101.0
 40
102.0
 40
102.0
 40
102.0
 40
103.0
 40
103.0
 40
103.0
 40
104.0
 40
104.0
 40
104.0
 40
105.0
 40
105.0
 40
105.0
 40
106.0
 40
106.0
 40
106.0
 40
107.0
 40
107.0
 40
107.0
 40
108.0
 40
108.0
 40
108.0
 40
109.0
 40
109.0
 40
109.0
 40
110.0
 40
110.0
 40
110.0
 40
111.0
 40
111.0
 40
111.0
 40
112.0
 40
112.0
 40
112.0
 40
113.0
 40
113.0
 40
113.0
 40
114.0
 40
114.0
 40
114.0
 40
115.0
 40
115.0
 40
115.0
 40
116.0
 40
116.0
 40
116.0
 40
117.0
 40
117.0
 40
117.0
 40
118.0
 40
118.0
 40
118.0
 40
119.0
 40
119.0
 40
119.0
 40
120.0
 40
120.0
 40
120.0
 40
121.0
 40
121.0
 40
121.0
 40
122.0
 40
122.0
 40
122.0
 40
123.0
 40
123.0
 40
123.0
 40
124.0
 40
124.0
 40
124.0
 40
125.0
 40
125.0
 40
125.0
 40
126.0
 40
126.0
 40
126.0
 40
127.0
 40
127.0
 40
127.0
 40
128.0
 40
128.0
 40
128.0
 40
129.0
 40
129.0
 40
129.0
 40
130.0
 40
130.0
 40
130.0
 40
131.0
 40
131.0
 40
131.0
 40
132.0
 40
132.0
 40
132.0
 40
132.0
 10
249.9792208076478
 20
450.0079084429298
 30
0.0
 10
249.9759212294148
 20
450.0056356996565
 30
0.0
 10
249.9726216511817
 20
450.0033629563813
 30
0.0
 10
249.9644819551404
 20
450.0011007046951
 30
0.0
 10
249.952847085101
 20
449.9978670453229
 30
0.0
 10
249.9313229815698
 20
449.9946548221514
 30
0.0
 10
249.9057743121439
 20
449.9914517565476
 30
0.0
 10
249.9029063958087
 20
449.9910922026311
 30
0.0
 10
249.8999877669257
 20
449.9907327641076
 30
0.0
 10
249.8969892108189
 20
449.990373492933
 30
0.0
 10
249.893990655065
 20
449.990014221802
 30
0.0
 10
249.8909121721035
 20
449.9896551180199
 30
0.0
 10
249.887761633242
 20
449.9892961944087
 30
0.0
 10
249.8846110947534
 20
449.9889372708375
 30
0.0
 10
249.8813885003829
 20
449.9885785274337
 30
0.0
 10
249.8780917865852
 20
449.9882198609729
 30
0.0
 10
249.8747950731768
 20
449.9878611945559
 30
0.0
 10
249.871424240363
 20
449.9875026050804
 30
0.0
 10
249.867979887943
 20
449.9871444926293
 30
0.0
 10
249.8645355359268
 20
449.9867863802201
 30
0.0
 10
249.8610176643206
 20
449.9864287448353
 30
0.0
 10
249.857426164338
 20
449.9860700893759
 30
0.0
 10
249.8538346647774
 20
449.9857114339565
 30
0.0
 10
249.8501695368568
 20
449.9853517584624
 30
0.0
 10
249.84643085271
 20
449.9849966512129
 30
0.0
 10
249.8426921690034
 20
449.9846415440033
 30
0.0
 10
249.8388799290851
 20
449.9842910050365
 30
0.0
 10
249.8349941999177
 20
449.98392417814
 30
0.0
 10
249.834798842231
 20
449.9839057356685
 30
0.0
 10
249.8346032987893
 20
449.9838872520258
 30
0.0
 10
249.8344075696614
 20
449.9838686838383
 30
0.0
 10
249.8328892185082
 20
449.9837246427987
 30
0.0
 10
249.8313596932649
 20
449.9835755141494
 30
0.0
 10
249.8298189884254
 20
449.98342660873
 30
0.0
 10
249.8255600161165
 20
449.9830149892941
 30
0.0
 10
249.8212156164782
 20
449.9826050756446
 30
0.0
 10
249.8167858490587
 20
449.9821941267773
 30
0.0
 10
249.8097353905277
 20
449.9815400567832
 30
0.0
 10
249.8024686766412
 20
449.9808833643501
 30
0.0
 10
249.794985951211
 20
449.9802267322839
 30
0.0
 10
249.7847218759516
 20
449.9793260282522
 30
0.0
 10
249.7740513601739
 20
449.9784254378019
 30
0.0
 10
249.7629750024362
 20
449.9775244252478
 30
0.0
 10
249.7435377644497
 20
449.9759432921846
 30
0.0
 10
249.7228507506889
 20
449.9743608592679
 30
0.0
 10
249.7009179432926
 20
449.9727781519132
 30
0.0
 10
249.6729644222059
 20
449.9707609799834
 30
0.0
 10
249.6429872730341
 20
449.968743362263
 30
0.0
 10
249.610995826125
 20
449.9667253673933
 30
0.0
 10
249.5721141957028
 20
449.9642727452619
 30
0.0
 10
249.5302571688672
 20
449.9618195660286
 30
0.0
 10
249.4854430003843
 20
449.9593660716882
 30
0.0
 10
249.4258242181449
 20
449.956102051633
 30
0.0
 10
249.3609717501322
 20
449.952837473892
 30
0.0
 10
249.2909391762887
 20
449.949572570421
 30
0.0
 10
249.2092064267226
 20
449.9457622072831
 30
0.0
 10
249.1204181303847
 20
449.9419514004885
 30
0.0
 10
249.0246678548747
 20
449.9381401815217
 30
0.0
 10
248.9152118591401
 20
449.9337834236457
 30
0.0
 10
248.7966581601459
 20
449.9294261271542
 30
0.0
 10
248.6691936468824
 20
449.9250689049904
 30
0.0
 10
248.576316816946
 20
449.9218940214769
 30
0.0
 10
248.4787089801803
 20
449.9187191774244
 30
0.0
 10
248.3764358678973
 20
449.9155440798376
 30
0.0
 10
248.2665060484933
 20
449.9121312776196
 30
0.0
 10
248.1511862710804
 20
449.9087181824825
 30
0.0
 10
248.0305972709657
 20
449.9053053552315
 30
0.0
 10
248.0023697442584
 20
449.9045064791125
 30
0.0
 10
247.973853497585
 20
449.9037076176728
 30
0.0
 10
247.9450491165908
 20
449.9029087457429
 30
0.0
 10
247.9158127217843
 20
449.9020978921753
 30
0.0
 10
247.886279484851
 20
449.9012870277974
 30
0.0
 10
247.8564511083669
 20
449.9004761588139
 30
0.0
 10
247.8261819707686
 20
449.8996533079689
 30
0.0
 10
247.7956089068748
 20
449.8988304523745
 30
0.0
 10
247.7647334224885
 20
449.8980075944464
 30
0.0
 10
247.7334083478991
 20
449.8971727545567
 30
0.0
 10
247.7017719813657
 20
449.8963379122624
 30
0.0
 10
247.6698260652693
 20
449.8955030526367
 30
0.0
 10
247.6374216485774
 20
449.8946562107731
 30
0.0
 10
247.6046987330001
 20
449.8938093510759
 30
0.0
 10
247.5716589296216
 20
449.8929625333885
 30
0.0
 10
247.5381516355383
 20
449.8921037338086
 30
0.0
 10
247.5043184227224
 20
449.891244977437
 30
0.0
 10
247.470161853561
 20
449.8903860366981
 30
0.0
 10
247.4355287352509
 20
449.8895151121041
 30
0.0
 10
247.4005631747814
 20
449.8886439979641
 30
0.0
 10
247.365264680745
 20
449.887773562571
 30
0.0
 10
247.1267023133723
 20
449.8818907867326
 30
0.0
 10
246.8729327514893
 20
449.8760390136858
 30
0.0
 10
246.6047266723899
 20
449.8702269644081
 30
0.0
 10
246.3365211059218
 20
449.864414926239
 30
0.0
 10
246.0538790774244
 20
449.8586426116863
 30
0.0
 10
245.7575057634158
 20
449.8529074476528
 30
0.0
 10
245.4611330084945
 20
449.8471722944405
 30
0.0
 10
245.1510290198703
 20
449.8414742916057
 30
0.0
 10
244.8280755324058
 20
449.8358150123086
 30
0.0
 10
244.6149000812902
 20
449.8320794297423
 30
0.0
 10
244.3961260150454
 20
449.8283607192888
 30
0.0
 10
244.1719838928611
 20
449.8246584001763
 30
0.0
 10
243.9478420435598
 20
449.8209560855712
 30
0.0
 10
243.7183321513903
 20
449.8172701622634
 30
0.0
 10
243.483720734991
 20
449.813600704706
 30
0.0
 10
243.2772584574113
 20
449.8103715158768
 30
0.0
 10
243.0668453975386
 20
449.8071550786471
 30
0.0
 10
242.8526926288514
 20
449.8039517565548
 30
0.0
 10
242.8286533251494
 20
449.8035921738456
 30
0.0
 10
242.8045668983132
 20
449.8032327563987
 30
0.0
 10
242.7804332815713
 20
449.8028734929384
 30
0.0
 10
242.7562996676797
 20
449.8025142295218
 30
0.0
 10
242.7321188638934
 20
449.8021551200936
 30
0.0
 10
242.7078912316692
 20
449.8017961944124
 30
0.0
 10
242.6836636023026
 20
449.8014372687748
 30
0.0
 10
242.6593891445091
 20
449.8010785268843
 30
0.0
 10
242.6350681077847
 20
449.8007198609766
 30
0.0
 10
242.6107470739271
 20
449.8003611951125
 30
0.0
 10
242.5863794611478
 20
449.8000026052314
 30
0.0
 10
242.5619655448691
 20
449.7996444926311
 30
0.0
 10
242.5375516314643
 20
449.7992863800745
 30
0.0
 10
242.5130914145693
 20
449.798928744799
 30
0.0
 10
242.4885851841454
 20
449.7985700893777
 30
0.0
 10
242.4640789566047
 20
449.7982114340002
 30
0.0
 10
242.439526715546
 20
449.797851758477
 30
0.0
 10
242.4149286730763
 20
449.7974966512146
 30
0.0
 10
242.3903306334969
 20
449.7971415439924
 30
0.0
 10
242.3656867925192
 20
449.796791005031
 30
0.0
 10
242.3409976653193
 20
449.7964241781401
 30
0.0
 10
242.3397564018551
 20
449.7964057356576
 30
0.0
 10
242.3385150239237
 20
449.796387252004
 30
0.0
 10
242.3372735318708
 20
449.7963686838074
 30
0.0
 10
242.3276427722512
 20
449.7962246427369
 30
0.0
 10
242.3180051449881
 20
449.7960755140584
 30
0.0
 10
242.3083606151786
 20
449.7959266086063
 30
0.0
 10
242.2817002326947
 20
449.7955149891376
 30
0.0
 10
242.2549871053497
 20
449.7951050754554
 30
0.0
 10
242.2282216042631
 20
449.7946941265499
 30
0.0
 10
242.185621388614
 20
449.7940400565267
 30
0.0
 10
242.1428884987772
 20
449.7933833640645
 30
0.0
 10
242.1000243674762
 20
449.7927267319673
 30
0.0
 10
242.0412275206663
 20
449.7918260279138
 30
0.0
 10
241.982183734056
 20
449.7909254374381
 30
0.0
 10
241.9228963891173
 20
449.7900244248585
 30
0.0
 10
241.818856573328
 20
449.7884432917717
 30
0.0
 10
241.7140667284066
 20
449.7868608588314
 30
0.0
 10
241.6085473997982
 20
449.7852781514511
 30
0.0
 10
241.4740622562176
 20
449.7832609795068
 30
0.0
 10
241.3383921622508
 20
449.7812433617736
 30
0.0
 10
241.201579510097
 20
449.7792253668876
 30
0.0
 10
241.0353007243021
 20
449.7767727447526
 30
0.0
 10
240.8673342220218
 20
449.7743195655139
 30
0.0
 10
240.6977547128327
 20
449.7718660711698
 30
0.0
 10
240.4721536555926
 20
449.76860205112
 30
0.0
 10
240.2436978242977
 20
449.7653374733845
 30
0.0
 10
240.0125772899146
 20
449.7620725699189
 30
0.0
 10
239.7428439978094
 20
449.7582622068011
 30
0.0
 10
239.4694812553053
 20
449.7544514000246
 30
0.0
 10
239.1927820934043
 20
449.7506401810742
 30
0.0
 10
238.8764761396842
 20
449.7462834232273
 30
0.0
 10
238.5558102542882
 20
449.7419261267668
 30
0.0
 10
238.2312863903744
 20
449.7375689046338
 30
0.0
 10
237.994822555057
 20
449.7343940211457
 30
0.0
 10
237.7563104083156
 20
449.7312191771225
 30
0.0
 10
237.5159095446261
 20
449.7280440795612
 30
0.0
 10
237.2575109986911
 20
449.724631277374
 30
0.0
 10
236.9969303511926
 20
449.7212181822678
 30
0.0
 10
236.734440046158
 20
449.7178053550497
 30
0.0
 10
236.672996199005
 20
449.7170064789379
 30
0.0
 10
236.6114477147375
 20
449.7162076175072
 30
0.0
 10
236.5497956563677
 20
449.7154087455847
 30
0.0
 10
236.4872189282278
 20
449.7145978920243
 30
0.0
 10
236.4245354958357
 20
449.7137870276556
 30
0.0
 10
236.3617490350762
 20
449.7129761586811
 30
0.0
 10
236.2980348057599
 20
449.7121533078416
 30
0.0
 10
236.2342144807672
 20
449.7113304522563
 30
0.0
 10
236.1702911886523
 20
449.7105075943372
 30
0.0
 10
236.1054370840802
 20
449.7096727544549
 30
0.0
 10
236.0404769918651
 20
449.7088379121696
 30
0.0
 10
235.9754144810549
 20
449.7080030525548
 30
0.0
 10
235.9094181670144
 20
449.7071562106984
 30
0.0
 10
235.8433164733806
 20
449.7063093510105
 30
0.0
 10
235.7771127040805
 20
449.7054625333321
 30
0.0
 10
235.7099721965615
 20
449.7046037337631
 30
0.0
 10
235.6427267043391
 20
449.7037449773988
 30
0.0
 10
235.5753811486766
 20
449.7028860366708
 30
0.0
 10
235.5070959943487
 20
449.7020151120842
 30
0.0
 10
235.4387079649523
 20
449.7011439979533
 30
0.0
 10
235.3702166772846
 20
449.700273562571
 30
0.0
 10
234.9073231639441
 20
449.6943907867271
 30
0.0
 10
234.4397131882715
 20
449.6885390136767
 30
0.0
 10
233.9688177266589
 20
449.6827269643972
 30
0.0
 10
233.4979231650841
 20
449.6769149262245
 30
0.0
 10
233.0237431301275
 20
449.6711426116698
 30
0.0
 10
232.5474572381217
 20
449.6654074476346
 30
0.0
 10
232.0711722445949
 20
449.6596722944222
 30
0.0
 10
231.5927814019642
 20
449.6539742915874
 30
0.0
 10
231.1136404184081
 20
449.6483150122903
 30
0.0
 10
230.7973685734459
 20
449.6445794297242
 30
0.0
 10
230.4807698869163
 20
449.6408607192706
 30
0.0
 10
230.1641735765106
 20
449.6371584001599
 30
0.0
 10
229.8475776515488
 20
449.6334560855548
 30
0.0
 10
229.5309841027056
 20
449.6297701622488
 30
0.0
 10
229.2147625560237
 20
449.6261007046951
 30
0.0
 10
228.936481891983
 20
449.6228715158677
 30
0.0
 10
228.6584893182235
 20
449.6196550786399
 30
0.0
 10
228.3810616930814
 20
449.6164517565476
 30
0.0
 10
228.3499195930899
 20
449.61609217384
 30
0.0
 10
228.3187846118717
 20
449.6157327563914
 30
0.0
 10
228.2876566454752
 20
449.615373492933
 30
0.0
 10
228.256528682753
 20
449.6150142295164
 30
0.0
 10
228.2254077348489
 20
449.6146551200881
 30
0.0
 10
228.1942942722353
 20
449.6142961944087
 30
0.0
 10
228.1631808132943
 20
449.6139372687712
 30
0.0
 10
228.132074839642
 20
449.6135785268807
 30
0.0
 10
228.1009766694433
 20
449.6132198609729
 30
0.0
 10
228.0698785029099
 20
449.6128611951089
 30
0.0
 10
228.0387881398301
 20
449.6125026052277
 30
0.0
 10
228.0077059321657
 20
449.6121444926293
 30
0.0
 10
227.9766237281647
 20
449.6117863800709
 30
0.0
 10
227.9455496795754
 20
449.6114287447953
 30
0.0
 10
227.9144841544248
 20
449.6110700893759
 30
0.0
 10
227.8834186329305
 20
449.6107114339966
 30
0.0
 10
227.8523616348693
 20
449.6103517584733
 30
0.0
 10
227.8213134291391
 20
449.6099966512129
 30
0.0
 10
227.7902652270577
 20
449.6096415439942
 30
0.0
 10
227.7592258173036
 20
449.6092910050383
 30
0.0
 10
227.7281958480826
 20
449.6089241781401
 30
0.0
 10
227.7266357954932
 20
449.6089057356721
 30
0.0
 10
227.7250757667634
 20
449.6088872520313
 30
0.0
 10
227.7235157623263
 20
449.6088686838475
 30
0.0
 10
227.7114141663487
 20
449.6087246428169
 30
0.0
 10
227.6993140321947
 20
449.6085755141784
 30
0.0
 10
227.6872153159557
 20
449.60842660877
 30
0.0
 10
227.653770818245
 20
449.608014989345
 30
0.0
 10
227.6203371553374
 20
449.6076050757064
 30
0.0
 10
227.5869147925778
 20
449.6071941268519
 30
0.0
 10
227.5337194521644
 20
449.606540056865
 30
0.0
 10
227.4805527375111
 20
449.6058833644447
 30
0.0
 10
227.4274164309563
 20
449.6052267323857
 30
0.0
 10
227.3545292112076
 20
449.6043260283632
 30
0.0
 10
227.2816992063736
 20
449.6034254379201
 30
0.0
 10
227.2089306000262
 20
449.602524425375
 30
0.0
 10
227.0812333227395
 20
449.6009432923192
 30
0.0
 10
226.9537251198881
 20
449.5993608594099
 30
0.0
 10
226.8264310649765
 20
449.5977781520623
 30
0.0
 10
226.6641938741914
 20
449.595760980138
 30
0.0
 10
226.5023045385997
 20
449.5937433624231
 30
0.0
 10
226.3408136794778
 20
449.591725367557
 30
0.0
 10
226.1445415968401
 20
449.5892727454275
 30
0.0
 10
225.948858119079
 20
449.5868195661942
 30
0.0
 10
225.7538506467126
 20
449.5843660718573
 30
0.0
 10
225.4944213537338
 20
449.5811020518003
 30
0.0
 10
225.2361884863103
 20
449.5778374740557
 30
0.0
 10
224.9793672654369
 20
449.5745725705829
 30
0.0
 10
224.6796395330703
 20
449.5707622074396
 30
0.0
 10
224.3818345294267
 20
449.5669514006395
 30
0.0
 10
224.0862730953295
 20
449.5631401816672
 30
0.0
 10
223.7484049176992
 20
449.5587834237803
 30
0.0
 10
223.4134685687177
 20
449.5544261272798
 30
0.0
 10
223.0819870283694
 20
449.5500689051068
 30
0.0
 10
222.8404534918773
 20
449.5468940215841
 30
0.0
 10
222.6007542123634
 20
449.5437191775226
 30
0.0
 10
222.363049159203
 20
449.5405440799268
 30
0.0
 10
222.1075482461047
 20
449.5371312776978
 30
0.0
 10
221.8543513333307
 20
449.5337181825516
 30
0.0
 10
221.6037229796302
 20
449.5303053552915
 30
0.0
 10
221.5450557832682
 20
449.5295064791689
 30
0.0
 10
221.4865293276444
 20
449.5287076177255
 30
0.0
 10
221.4281445304386
 20
449.5279087457957
 30
0.0
 10
221.3688840664763
 20
449.5270978922226
 30
0.0
 10
221.3097695420383
 20
449.5262870278447
 30
0.0
 10
221.2508044530377
 20
449.5254761588576
 30
0.0
 10
221.190968062233
 20
449.524653308009
 30
0.0
 10
221.1312855557799
 20
449.5238304524128
 30
0.0
 10
221.0717598523152
 20
449.5230075944809
 30
0.0
 10
221.011367371415
 20
449.5221727545895
 30
0.0
 10
220.9511362932917
 20
449.5213379122914
 30
0.0
 10
220.8910699229673
 20
449.520503052664
 30
0.0
 10
220.8301414560074
 20
449.5196562107948
 30
0.0
 10
220.7693824586786
 20
449.518809351096
 30
0.0
 10
220.7087959923565
 20
449.5179625334067
 30
0.0
 10
220.6473522688084
 20
449.517103733825
 30
0.0
 10
220.5860859932009
 20
449.5162449774498
 30
0.0
 10
220.5250015628608
 20
449.515386036709
 30
0.0
 10
220.4630648884558
 20
449.5145151121096
 30
0.0
 10
220.4013151688905
 20
449.513643997966
 30
0.0
 10
220.339752353646
 20
449.512773562571
 30
0.0
 10
219.9236844365159
 20
449.5068907867343
 30
0.0
 10
219.5161536289033
 20
449.5010390136876
 30
0.0
 10
219.1184129597305
 20
449.4952269644118
 30
0.0
 10
218.7206730507714
 20
449.4894149262427
 30
0.0
 10
218.3327232428264
 20
449.4836426116917
 30
0.0
 10
217.9555265887921
 20
449.4779074476601
 30
0.0
 10
217.5783306463145
 20
449.472172294446
 30
0.0
 10
217.2118878171759
 20
449.4664742916129
 30
0.0
 10
216.8572336274046
 20
449.460815012314
 30
0.0
 10
216.6231331459776
 20
449.4570794297496
 30
0.0
 10
216.3941690559022
 20
449.4533607192961
 30
0.0
 10
216.1705763821146
 20
449.4496584001817
 30
0.0
 10
215.9469839805424
 20
449.4459560855748
 30
0.0
 10
215.7287629821785
 20
449.442270162267
 30
0.0
 10
215.5161695985471
 20
449.4386007047096
 30
0.0
 10
215.3290835868938
 20
449.4353715158804
 30
0.0
 10
215.1463557787174
 20
449.4321550786508
 30
0.0
 10
214.9681666373508
 20
449.4289517565548
 30
0.0
 10
214.9481643608824
 20
449.4285921738473
 30
0.0
 10
214.9282192750188
 20
449.4282327563987
 30
0.0
 10
214.9083312995117
 20
449.4278734929385
 30
0.0
 10
214.8884433263538
 20
449.4275142295219
 30
0.0
 10
214.8686124635396
 20
449.4271551200936
 30
0.0
 10
214.8488390149641
 20
449.4267961944124
 30
0.0
 10
214.8290655687224
 20
449.4264372687748
 30
0.0
 10
214.8093495367056
 20
449.4260785268843
 30
0.0
 10
214.7896911193702
 20
449.4257198609766
 30
0.0
 10
214.7700327043521
 20
449.4253611951125
 30
0.0
 10
214.7504319040026
 20
449.4250026052314
 30
0.0
 10
214.7308889406559
 20
449.4246444926329
 30
0.0
 10
214.711345979611
 20
449.4242863800746
 30
0.0
 10
214.6918608555552
 20
449.423928744799
 30
0.0
 10
214.672433798989
 20
449.4235700893778
 30
0.0
 10
214.6530067447093
 20
449.4232114340002
 30
0.0
 10
214.6336377579064
 20
449.422851758477
 30
0.0
 10
214.6143270067441
 20
449.4224966512147
 30
0.0
 10
214.595016257852
 20
449.4221415439924
 30
0.0
 10
214.5757637445877
 20
449.421791005031
 30
0.0
 10
214.556569868475
 20
449.4214241781401
 30
0.0
 10
214.5556048826738
 20
449.4214057356575
 30
0.0
 10
214.5546400450867
 20
449.421387252004
 30
0.0
 10
214.5536753559773
 20
449.4213686838074
 30
0.0
 10
214.546191869571
 20
449.4212246427369
 30
0.0
 10
214.5387173181389
 20
449.4210755140584
 30
0.0
 10
214.5312516744925
 20
449.4209266086063
 30
0.0
 10
214.5106143890134
 20
449.4205149891377
 30
0.0
 10
214.4900451711219
 20
449.4201050754518
 30
0.0
 10
214.4695443077999
 20
449.4196941265499
 30
0.0
 10
214.4369149467584
 20
449.4190400565266
 30
0.0
 10
214.4044587428507
 20
449.4183833640627
 30
0.0
 10
214.3721767839561
 20
449.4177267319655
 30
0.0
 10
214.3278955321484
 20
449.4168260279102
 30
0.0
 10
214.2839421342578
 20
449.4159254374344
 30
0.0
 10
214.2403191252752
 20
449.4150244248567
 30
0.0
 10
214.1637677158124
 20
449.4134432917698
 30
0.0
 10
214.0882337271314
 20
449.4118608588296
 30
0.0
 10
214.0137320730737
 20
449.4102781514511
 30
0.0
 10
213.9187791789
 20
449.4082609795068
 30
0.0
 10
213.825503176663
 20
449.4062433617719
 30
0.0
 10
213.7339332634647
 20
449.4042253668876
 30
0.0
 10
213.6226414074699
 20
449.4017727447507
 30
0.0
 10
213.5138696809754
 20
449.3993195655121
 30
0.0
 10
213.4076669774067
 20
449.3968660711679
 30
0.0
 10
213.2663796112583
 20
449.3936020511182
 30
0.0
 10
213.1296390204225
 20
449.3903374733827
 30
0.0
 10
212.9975595023916
 20
449.3870725699171
 30
0.0
 10
212.8434137735721
 20
449.3832622067993
 30
0.0
 10
212.6956166441951
 20
449.379451400021
 30
0.0
 10
212.5543288206372
 20
449.3756401810724
 30
0.0
 10
212.3928170203426
 20
449.3712834232273
 30
0.0
 10
212.2398113834597
 20
449.3669261267668
 30
0.0
 10
212.0955495624312
 20
449.3625689046338
 30
0.0
 10
211.9904333990817
 20
449.3593940211458
 30
0.0
 10
211.8899595783014
 20
449.3562191771225
 30
0.0
 10
211.7941947359422
 20
449.3530440795593
 30
0.0
 10
211.6912604301433
 20
449.3496312773741
 30
0.0
 10
211.5937665738529
 20
449.346218182266
 30
0.0
 10
211.5018148678637
 20
449.3428053550478
 30
0.0
 10
211.4802907716966
 20
449.3420064789379
 30
0.0
 10
211.4590703501981
 20
449.3412076175072
 30
0.0
 10
211.438153837139
 20
449.3404087455846
 30
0.0
 10
211.4169236140778
 20
449.3395978920225
 30
0.0
 10
211.3960064839766
 20
449.3387870276519
 30
0.0
 10
211.3754037194958
 20
449.3379761586793
 30
0.0
 10
211.3544965168148
 20
449.3371533078452
 30
0.0
 10
211.3339130388858
 20
449.3363304522745
 30
0.0
 10
211.3136542670682
 20
449.3355075943372
 30
0.0
 10
211.2931004992252
 20
449.3346727544385
 30
0.0
 10
211.2728809626924
 20
449.3338379121041
 30
0.0
 10
211.2529968298377
 20
449.333003052553
 30
0.0
 10
211.2328273119383
 20
449.3321562107658
 30
0.0
 10
211.213002894503
 20
449.3313093512615
 30
0.0
 10
211.1935243459884
 20
449.3304625333321
 30
0.0
 10
211.1737701892871
 20
449.3296037335048
 30
0.0
 10
211.15437175837
 20
449.3287449764384
 30
0.0
 10
211.1353313304962
 20
449.3278860366708
 30
0.0
 10
211.1160252524196
 20
449.3270151130609
 30
0.0
 10
211.0970872367216
 20
449.3261440016185
 30
0.0
 10
211.0785138618485
 20
449.325273562571
 30
0.0
 10
210.9529870241613
 20
449.3193907619561
 30
0.0
 10
210.8441156536192
 20
449.3135386738513
 30
0.0
 10
210.7526780773387
 20
449.3077269643972
 30
0.0
 10
210.6612406758259
 20
449.3019152660481
 30
0.0
 10
210.5872370019315
 20
449.2961439461969
 30
0.0
 10
210.5294688885979
 20
449.2904074476346
 30
0.0
 10
210.4717008842399
 20
449.2846709598953
 30
0.0
 10
210.4301683791891
 20
449.2789692933138
 30
0.0
 10
210.4100649068587
 20
449.2733150122903
 30
0.0
 10
210.3971339154823
 20
449.2696780555515
 30
0.0
 10
210.3930688492273
 20
449.2660607038406
 30
0.0
 10
210.3890037829733
 20
449.2624433521296
 30
0.0
  0
SPLINE
  5
BC
330
70
100
AcDbEntity
  8
0
 62
    18
420
        0
370
     9
100
AcDbSpline
210
0.0
220
0.0
230
1.0
 70
     8
 71
     3
 72
   122
 73
   118
 74
     0
 42
0.0000000001
 43
0.0000000001
 40
0.0
 40
0.0
 40
0.0
 40
0.0
 40
1.0
 40
1.0
 40
1.0
 40
2.0
 40
2.0
 40
2.0
 40
3.0
 40
3.0
 40
3.0
 40
4.0
 40
4.0
 40
4.0
 40
5.0
 40
5.0
 40
5.0
 40
6.0
 40
6.0
 40
6.0
 40
7.0
 40
7.0
 40
7.0
 40
8.0
 40
8.0
 40
8.0
 40
9.0
 40
9.0
 40
9.0
 40
10.0
 40
10.0
 40
10.0
 40
11.0
 40
11.0
 40
11.0
 40
12.0
 40
12.0
 40
12.0
 40
13.0
 40
13.0
 40
13.0
 40
14.0
 40
14.0
 40
14.0
 40
15.0
 40
15.0
 40
15.0
 40
16.0
 40
16.0
 40
16.0
 40
17.0
 40
17.0
 40
17.0
 40
18.0
 40
18.0
 40
18.0
 40
19.0
 40
19.0
 40
19.0
 40
20.0
 40
20.0
 40
20.0
 40
21.0
 40
21.0
 40
21.0
 40
22.0
 40
22.0
 40
22.0
 40
23.0
 40
23.0
 40
23.0
 40
24.0
 40
24.0
 40
24.0
 40
25.0
 40
25.0
 40
25.0
 40
26.0
 40
26.0
 40
26.0
 40
27.0
 40
27.0
 40
27.0
 40
28.0
 40
28.0
 40
28.0
 40
29.0
 40
29.0
 40
29.0
 40
30.0
 40
30.0
 40
30.0
 40
31.0
 40
31.0
 40
31.0
 40
32.0
 40
32.0
 40
32.0
 40
33.0
 40
33.0
 40
33.0
 40
34.0
 40
34.0
 40
34.0
 40
35.0
 40
35.0
 40
35.0
 40
36.0
 40
36.0
 40
36.0
 40
37.0
 40
37.0
 40
37.0
 40
38.0
 40
38.0
 40
38.0
 40
39.0
 40
39.0
 40
39.0
 40
39.0
 10
249.1618143728547
 20
451.0393172607573
 30
0.0
 10
249.1526186389483
 20
451.0349439229712
 30
0.0
 10
249.1434229050401
 20
451.0305705851851
 30
0.0
 10
249.1190012670568
 20
451.0261333195731
 30
0.0
 10
249.0857777644787
 20
451.020096807787
 30
0.0
 10
249.0243753419809
 20
451.0139419833494
 30
0.0
 10
248.9461910056534
 20
451.0077390165415
 30
0.0
 10
248.8593563588683
 20
451.0008497538429
 30
0.0
 10
248.7518208675929
 20
450.9939011065153
 30
0.0
 10
248.6204309394953
 20
450.9869031665248
 30
0.0
 10
248.4881798114284
 20
450.9798593582882
 30
0.0
 10
248.3317605121911
 20
450.9727656090936
 30
0.0
 10
248.1527306981052
 20
450.9656532097624
 30
0.0
 10
247.9732091267206
 20
450.9585212741649
 30
0.0
 10
247.7709526572189
 20
450.9513705858398
 30
0.0
 10
247.5464774886013
 20
450.944227493871
 30
0.0
 10
247.32224424986
 20
450.9370921004256
 30
0.0
 10
247.075840178949
 20
450.9299642869727
 30
0.0
 10
246.8082698468161
 20
450.9228710066954
 30
0.0
 10
246.5420040468753
 20
450.9158123095176
 30
0.0
 10
246.254777873698
 20
450.9087878096043
 30
0.0
 10
245.9476806647172
 20
450.9018261126938
 30
0.0
 10
245.6707504199412
 20
450.8955482815281
 30
0.0
 10
245.3776613587752
 20
450.8893215207872
 30
0.0
 10
245.0693056766768
 20
450.8831592448068
 30
0.0
 10
244.7642885673476
 20
450.8770636879062
 30
0.0
 10
244.4443336314516
 20
450.8710312269713
 30
0.0
 10
244.1104062882287
 20
450.8651001017124
 30
0.0
 10
243.7797548219578
 20
450.8592271616789
 30
0.0
 10
243.4354037464627
 20
450.8534535788376
 30
0.0
 10
243.0783668341437
 20
450.8475785804812
 30
0.0
 10
242.7177000854072
 20
450.8416438536159
 30
0.0
 10
242.3440882460663
 20
450.835605638661
 30
0.0
 10
241.9586563979765
 20
450.8295052877866
 30
0.0
 10
241.5690299780699
 20
450.8233385481098
 30
0.0
 10
241.1673248802935
 20
450.8171083127299
 30
0.0
 10
240.7547744771027
 20
450.8108274160177
 30
0.0
 10
240.3389960004106
 20
450.8044973733185
 30
0.0
 10
239.9122018322769
 20
450.79811587337
 30
0.0
 10
239.4757325978126
 20
450.7917046164847
 30
0.0
 10
239.0372104311073
 20
450.7852632042622
 30
0.0
 10
238.5889219707178
 20
450.7787917545219
 30
0.0
 10
238.1322532130062
 20
450.7723100183566
 30
0.0
 10
237.6291846055819
 20
450.765169705096
 30
0.0
 10
237.115946225148
 20
450.7580169089151
 30
0.0
 10
236.5945330727764
 20
450.7508788321274
 30
0.0
 10
236.0742249116583
 20
450.7437558825249
 30
0.0
 10
235.5457765902347
 20
450.7366475899989
 30
0.0
 10
235.0111932805948
 20
450.7295837046504
 30
0.0
 10
234.4797651558502
 20
450.7225615113356
 30
0.0
 10
233.9422742482775
 20
450.7155832025518
 30
0.0
 10
233.4007493040799
 20
450.7086646837842
 30
0.0
 10
232.8644254376895
 20
450.7018126139509
 30
0.0
 10
232.3241446523798
 20
450.6950191911373
 30
0.0
 10
231.7818940756924
 20
450.6883477940255
 30
0.0
 10
231.2467935507275
 20
450.681764365162
 30
0.0
 10
230.7097748387705
 20
450.6752997651847
 30
0.0
 10
230.1728000869034
 20
450.6688371467453
 30
0.0
 10
229.6847958163571
 20
450.6629638996591
 30
0.0
 10
229.1968278534541
 20
450.6570922891723
 30
0.0
 10
228.7103187271214
 20
450.6511203527288
 30
0.0
 10
228.2177872777747
 20
450.6450744918156
 30
0.0
 10
227.7267510053707
 20
450.6389258057761
 30
0.0
 10
227.2387126170534
 20
450.6327256155464
 30
0.0
 10
226.7461050925367
 20
450.6264673776013
 30
0.0
 10
226.2565518487418
 20
450.6201566665613
 30
0.0
 10
225.7715695147699
 20
450.6138042114789
 30
0.0
 10
225.2835467819723
 20
450.6074119322739
 30
0.0
 10
224.8001524495549
 20
450.6009773839933
 30
0.0
 10
224.3229060135991
 20
450.594523120998
 30
0.0
 10
223.8441672070285
 20
450.5880486752366
 30
0.0
 10
223.3716148065241
 20
450.5815543912713
 30
0.0
 10
222.9067407388275
 20
450.5750603616388
 30
0.0
 10
222.4418827462569
 20
450.5685665565697
 30
0.0
 10
221.9847025554764
 20
450.562073005819
 30
0.0
 10
221.5366513501476
 20
450.5555996216453
 30
0.0
 10
221.0900275968761
 20
450.5491468611098
 30
0.0
 10
220.6524747534122
 20
450.5427141388564
 30
0.0
 10
220.2253440802579
 20
450.5363245258658
 30
0.0
 10
219.7586820617071
 20
450.5293435481844
 30
0.0
 10
219.3044606497269
 20
450.5224140286291
 30
0.0
 10
218.8644134608548
 20
450.5155482753243
 30
0.0
 10
218.429029114207
 20
450.5087552731338
 30
0.0
 10
218.0075201954296
 20
450.5020246929843
 30
0.0
 10
217.6014251815504
 20
450.495432373601
 30
0.0
 10
217.2005382183142
 20
450.4889245987969
 30
0.0
 10
216.8146723374402
 20
450.482551561191
 30
0.0
 10
216.4452085506828
 20
450.476095244655
 30
0.0
 10
216.0730918371737
 20
450.4695925686746
 30
0.0
 10
215.7176136132266
 20
450.4630054135041
 30
0.0
 10
215.3800595079301
 20
450.4563291626355
 30
0.0
 10
215.0383524605077
 20
450.4495707735759
 30
0.0
 10
214.715013287163
 20
450.4427210830353
 30
0.0
 10
214.4112591327548
 20
450.4358138401357
 30
0.0
 10
214.1328059708058
 20
450.429481931259
 30
0.0
 10
213.8708110662719
 20
450.4231016582953
 30
0.0
 10
213.626081416206
 20
450.4166907822937
 30
0.0
 10
213.3802012324077
 20
450.410249767202
 30
0.0
 10
213.1517490210081
 20
450.4037778606535
 30
0.0
 10
212.9414255780921
 20
450.3972960536985
 30
0.0
 10
212.7307770423759
 20
450.3908042279427
 30
0.0
 10
212.5383133610139
 20
450.3843024711523
 30
0.0
 10
212.3647342365603
 20
450.3778112114878
 30
0.0
 10
212.1914353600287
 20
450.3713304321272
 30
0.0
 10
212.0369601104339
 20
450.3648601160285
 30
0.0
 10
211.9014527040627
 20
450.3584206376026
 30
0.0
 10
211.7665889014343
 20
450.3520117440157
 30
0.0
 10
211.6505131912054
 20
450.3456333958629
 30
0.0
 10
211.5548586722116
 20
450.3393057593229
 30
0.0
 10
211.4599531805952
 20
450.3330276716488
 30
0.0
 10
211.3851503141232
 20
450.3267995044943
 30
0.0
 10
211.3259944734909
 20
450.3206394624822
 30
0.0
 10
211.267479302036
 20
450.3145461349167
 30
0.0
 10
211.2242740710881
 20
450.3085194648656
 30
0.0
 10
211.2137040553798
 20
450.3025810529352
 30
0.0
 10
211.207437685227
 20
450.2990605011864
 30
0.0
 10
211.2126414177592
 20
450.2955709689877
 30
0.0
 10
211.2178451502914
 20
450.292081436789
 30
0.0
  0
SPLINE
  5
BD
330
70
100
AcDbEntity
  8
0
 62
    18
420
        0
370
     9
100
AcDbSpline
210
0.0
220
0.0
230
1.0
 70
     8
 71
     3
 72
   122
 73
   118
 74
     0
 42
0.0000000001
 43
0.0000000001
 40
0.0
 40
0.0
 40
0.0
 40
0.0
 40
1.0
 40
1.0
 40
1.0
 40
2.0
 40
2.0
 40
2.0
 40
3.0
 40
3.0
 40
3.0
 40
4.0
 40
4.0
 40
4.0
 40
5.0
 40
5.0
 40
5.0
 40
6.0
 40
6.0
 40
6.0
 40
7.0
 40
7.0
 40
7.0
 40
8.0
 40
8.0
 40
8.0
 40
9.0
 40
9.0
 40
9.0
 40
10.0
 40
10.0
 40
10.0
 40
11.0
 40
11.0
 40
11.0
 40
12.0
 40
12.0
 40
12.0
 40
13.0
 40
13.0
 40
13.0
 40
14.0
 40
14.0
 40
14.0
 40
15.0
 40
15.0
 40
15.0
 40
16.0
 40
16.0
 40
16.0
 40
17.0
 40
17.0
 40
17.0
 40
18.0
 40
18.0
 40
18.0
 40
19.0
 40
19.0
 40
19.0
 40
20.0
 40
20.0
 40
20.0
 40
21.0
 40
21.0
 40
21.0
 40
22.0
 40
22.0
 40
22.0
 40
23.0
 40
23.0
 40
23.0
 40
24.0
 40
24.0
 40
24.0
 40
25.0
 40
25.0
 40
25.0
 40
26.0
 40
26.0
 40
26.0
 40
27.0
 40
27.0
 40
27.0
 40
28.0
 40
28.0
 40
28.0
 40
29.0
 40
29.0
 40
29.0
 40
30.0
 40
30.0
 40
30.0
 40
31.0
 40
31.0
 40
31.0
 40
32.0
 40
32.0
 40
32.0
 40
33.0
 40
33.0
 40
33.0
 40
34.0
 40
34.0
 40
34.0
 40
35.0
 40
35.0
 40
35.0
 40
36.0
 40
36.0
 40
36.0
 40
37.0
 40
37.0
 40
37.0
 40
38.0
 40
38.0
 40
38.0
 40
39.0
 40
39.0
 40
39.0
 40
39.0
 10
249.1618143728547
 20
449.5393172607573
 30
0.0
 10
249.1526186389483
 20
449.5349439229712
 30
0.0
 10
249.1434229050401
 20
449.5305705851851
 30
0.0
 10
249.1190012670568
 20
449.526133319573
 30
0.0
 10
249.0857777644787
 20
449.5200968077869
 30
0.0
 10
249.0243753419809
 20
449.5139419833495
 30
0.0
 10
248.9461910056534
 20
449.5077390165415
 30
0.0
 10
248.8593563588683
 20
449.5008497538428
 30
0.0
 10
248.7518208675929
 20
449.4939011065152
 30
0.0
 10
248.6204309394953
 20
449.4869031665248
 30
0.0
 10
248.4881798114284
 20
449.4798593582881
 30
0.0
 10
248.3317605121911
 20
449.4727656090936
 30
0.0
 10
248.1527306981052
 20
449.4656532097624
 30
0.0
 10
247.9732091267206
 20
449.4585212741649
 30
0.0
 10
247.7709526572189
 20
449.4513705858398
 30
0.0
 10
247.5464774886013
 20
449.444227493871
 30
0.0
 10
247.32224424986
 20
449.4370921004255
 30
0.0
 10
247.075840178949
 20
449.4299642869727
 30
0.0
 10
246.8082698468161
 20
449.4228710066955
 30
0.0
 10
246.5420040468753
 20
449.4158123095176
 30
0.0
 10
246.254777873698
 20
449.4087878096043
 30
0.0
 10
245.9476806647172
 20
449.4018261126939
 30
0.0
 10
245.6707504199412
 20
449.3955482815281
 30
0.0
 10
245.3776613587752
 20
449.3893215207872
 30
0.0
 10
245.0693056766768
 20
449.3831592448068
 30
0.0
 10
244.7642885673476
 20
449.3770636879061
 30
0.0
 10
244.4443336314516
 20
449.3710312269713
 30
0.0
 10
244.1104062882287
 20
449.3651001017124
 30
0.0
 10
243.7797548219578
 20
449.3592271616789
 30
0.0
 10
243.4354037464627
 20
449.3534535788376
 30
0.0
 10
243.0783668341437
 20
449.3475785804812
 30
0.0
 10
242.7177000854072
 20
449.341643853616
 30
0.0
 10
242.3440882460663
 20
449.335605638661
 30
0.0
 10
241.9586563979765
 20
449.3295052877865
 30
0.0
 10
241.5690299780699
 20
449.3233385481098
 30
0.0
 10
241.1673248802935
 20
449.3171083127299
 30
0.0
 10
240.7547744771027
 20
449.3108274160176
 30
0.0
 10
240.3389960004106
 20
449.3044973733185
 30
0.0
 10
239.9122018322769
 20
449.2981158733701
 30
0.0
 10
239.4757325978126
 20
449.291704616483
 30
0.0
 10
239.0372104311073
 20
449.2852632042622
 30
0.0
 10
238.5889219707178
 20
449.278791754522
 30
0.0
 10
238.1322532130062
 20
449.2723100183566
 30
0.0
 10
237.6291846055819
 20
449.265169705096
 30
0.0
 10
237.115946225148
 20
449.258016908915
 30
0.0
 10
236.5945330727764
 20
449.2508788321274
 30
0.0
 10
236.0742249116583
 20
449.2437558825249
 30
0.0
 10
235.5457765902347
 20
449.2366475899989
 30
0.0
 10
235.0111932805948
 20
449.2295837046504
 30
0.0
 10
234.4797651558502
 20
449.2225615113357
 30
0.0
 10
233.9422742482775
 20
449.2155832025519
 30
0.0
 10
233.4007493040799
 20
449.2086646837842
 30
0.0
 10
232.8644254376895
 20
449.201812613951
 30
0.0
 10
232.3241446523798
 20
449.1950191911374
 30
0.0
 10
231.7818940756924
 20
449.1883477940254
 30
0.0
 10
231.2467935507275
 20
449.1817643651621
 30
0.0
 10
230.7097748387705
 20
449.1752997651847
 30
0.0
 10
230.1728000869034
 20
449.1688371467453
 30
0.0
 10
229.6847958163571
 20
449.1629638996592
 30
0.0
 10
229.1968278534541
 20
449.1570922891724
 30
0.0
 10
228.7103187271214
 20
449.1511203527288
 30
0.0
 10
228.2177872777747
 20
449.1450744918156
 30
0.0
 10
227.7267510053707
 20
449.1389258057761
 30
0.0
 10
227.2387126170534
 20
449.1327256155464
 30
0.0
 10
226.7461050925367
 20
449.1264673776013
 30
0.0
 10
226.2565518487418
 20
449.1201566665613
 30
0.0
 10
225.7715695147699
 20
449.113804211479
 30
0.0
 10
225.2835467819723
 20
449.1074119322738
 30
0.0
 10
224.8001524495549
 20
449.1009773839932
 30
0.0
 10
224.3229060135991
 20
449.094523120998
 30
0.0
 10
223.8441672070285
 20
449.0880486752367
 30
0.0
 10
223.3716148065241
 20
449.0815543912713
 30
0.0
 10
222.9067407388275
 20
449.0750603616389
 30
0.0
 10
222.4418827462569
 20
449.0685665565697
 30
0.0
 10
221.9847025554764
 20
449.0620730058189
 30
0.0
 10
221.5366513501476
 20
449.0555996216453
 30
0.0
 10
221.0900275968761
 20
449.0491468611098
 30
0.0
 10
220.6524747534122
 20
449.0427141388563
 30
0.0
 10
220.2253440802579
 20
449.0363245258659
 30
0.0
 10
219.7586820617071
 20
449.0293435481844
 30
0.0
 10
219.3044606497269
 20
449.0224140286291
 30
0.0
 10
218.8644134608548
 20
449.0155482753244
 30
0.0
 10
218.429029114207
 20
449.0087552731337
 30
0.0
 10
218.0075201954296
 20
449.0020246929844
 30
0.0
 10
217.6014251815504
 20
448.995432373601
 30
0.0
 10
217.2005382183142
 20
448.988924598797
 30
0.0
 10
216.8146723374402
 20
448.982551561191
 30
0.0
 10
216.4452085506828
 20
448.9760952446549
 30
0.0
 10
216.0730918371737
 20
448.9695925686747
 30
0.0
 10
215.7176136132266
 20
448.9630054135041
 30
0.0
 10
215.3800595079301
 20
448.9563291626354
 30
0.0
 10
215.0383524605077
 20
448.9495707735759
 30
0.0
 10
214.715013287163
 20
448.9427210830354
 30
0.0
 10
214.4112591327548
 20
448.9358138401358
 30
0.0
 10
214.1328059708058
 20
448.929481931259
 30
0.0
 10
213.8708110662719
 20
448.9231016582952
 30
0.0
 10
213.626081416206
 20
448.9166907822936
 30
0.0
 10
213.3802012324077
 20
448.9102497672019
 30
0.0
 10
213.1517490210081
 20
448.9037778606534
 30
0.0
 10
212.9414255780921
 20
448.8972960536984
 30
0.0
 10
212.7307770423759
 20
448.8908042279426
 30
0.0
 10
212.5383133610139
 20
448.8843024711522
 30
0.0
 10
212.3647342365603
 20
448.8778112114878
 30
0.0
 10
212.1914353600287
 20
448.8713304321272
 30
0.0
 10
212.0369601104339
 20
448.8648601160284
 30
0.0
 10
211.9014527040627
 20
448.8584206376026
 30
0.0
 10
211.7665889014343
 20
448.8520117440157
 30
0.0
 10
211.6505131912054
 20
448.8456333958629
 30
0.0
 10
211.5548586722116
 20
448.839305759323
 30
0.0
 10
211.4599531805961
 20
448.8330276716488
 30
0.0
 10
211.3851503141232
 20
448.8267995044943
 30
0.0
 10
211.3259944734909
 20
448.8206394624821
 30
0.0
 10
211.267479302036
 20
448.8145461349168
 30
0.0
 10
211.2242740710881
 20
448.8085194648656
 30
0.0
 10
211.2137040553798
 20
448.8025810529352
 30
0.0
 10
211.207437685227
 20
448.7990605011864
 30
0.0
 10
211.2126414177592
 20
448.7955709689877
 30
0.0
 10
211.2178451502914
 20
448.7920814367889
 30
0.0
  0
SPLINE
  5
BE
330
70
100
AcDbEntity
  8
0
 62
    18
420
        0
370
     9
100
AcDbSpline
210
0.0
220
0.0
230
1.0
 70
     8
 71
     3
 72
     8
 73
     4
 74
     0
 42
0.0000000001
 43
0.0000000001
 40
0.0
 40
0.0
 40
0.0
 40
0.0
 40
1.0
 40
1.0
 40
1.0
 40
1.0
 10
240.0621370539511
 20
451.2631275421727
 30
0.0
 10
240.0538023950749
 20
451.2630095656486
 30
0.0
 10
240.0454638500169
 20
451.2628915723753
 30
0.0
 10
240.0371214310171
 20
451.2627735625419
 30
0.0
  0
SPLINE
  5
BF
330
70
100
AcDbEntity
  8
0
 62
    18
420
        0
370
     9
100
AcDbSpline
210
0.0
220
0.0
230
1.0
 70
    24
 71
     3
 72
    47
 73
    43
 74
     0
 42
0.0000000001
 43
0.0000000001
 40
0.0
 40
0.0
 40
0.0
 40
0.0
 40
1.0
 40
1.0
 40
1.0
 40
2.0
 40
2.0
 40
2.0
 40
3.0
 40
3.0
 40
3.0
 40
4.0
 40
4.0
 40
4.0
 40
5.0
 40
5.0
 40
5.0
 40
6.0
 40
6.0
 40
6.0
 40
7.0
 40
7.0
 40
7.0
 40
8.0
 40
8.0
 40
8.0
 40
9.0
 40
9.0
 40
9.0
 40
10.0
 40
10.0
 40
10.0
 40
11.0
 40
11.0
 40
11.0
 40
12.0
 40
12.0
 40
12.0
 40
13.0
 40
13.0
 40
13.0
 40
14.0
 40
14.0
 40
14.0
 40
14.0
 10
240.0618166253198
 20
451.262773562571
 30
0.0
 10
240.3396055143594
 20
451.262773562571
 30
0.0
 10
240.6173944034008
 20
451.262773562571
 30
0.0
 10
240.8895506761301
 20
451.262773562571
 30
0.0
 10
241.1623758225496
 20
451.262773562571
 30
0.0
 10
241.4295406322699
 20
451.262773562571
 30
0.0
 10
241.6920797574012
 20
451.262773562571
 30
0.0
 10
242.1291811900291
 20
451.262773562571
 30
0.0
 10
242.5534607219697
 20
451.262773562571
 30
0.0
 10
242.9626194067487
 20
451.262773562571
 30
0.0
 10
243.3746007762684
 20
451.262773562571
 30
0.0
 10
243.7712519490006
 20
451.262773562571
 30
0.0
 10
244.1512571859594
 20
451.262773562571
 30
0.0
 10
244.5395841327709
 20
451.262773562571
 30
0.0
 10
244.9105281045095
 20
451.262773562571
 30
0.0
 10
245.2624697164074
 20
451.262773562571
 30
0.0
 10
245.6170710099314
 20
451.262773562571
 30
0.0
 10
245.9523816503561
 20
451.262773562571
 30
0.0
 10
246.2671918021524
 20
451.262773562571
 30
0.0
 10
246.5708589051965
 20
451.262773562571
 30
0.0
 10
246.855451109217
 20
451.262773562571
 30
0.0
 10
247.1199431848099
 20
451.262773562571
 30
0.0
 10
247.3863221181509
 20
451.262773562571
 30
0.0
 10
247.6323131158524
 20
451.262773562571
 30
0.0
 10
247.8570968588656
 20
451.262773562571
 30
0.0
 10
248.0773170652128
 20
451.262773562571
 30
0.0
 10
248.2771823709891
 20
451.262773562571
 30
0.0
 10
248.4557879321246
 20
451.262773562571
 30
0.0
 10
248.6356335844476
 20
451.262773562571
 30
0.0
 10
248.793923246626
 20
451.262773562571
 30
0.0
 10
248.9309491135073
 20
451.262773562571
 30
0.0
 10
249.0670301426353
 20
451.262773562571
 30
0.0
 10
249.1821396069854
 20
451.262773562571
 30
0.0
 10
249.2727690179336
 20
451.262773562571
 30
0.0
 10
249.3640276611795
 20
451.262773562571
 30
0.0
 10
249.4304651451266
 20
451.262773562571
 30
0.0
 10
249.4836190020733
 20
451.262773562571
 30
0.0
 10
249.5361024813219
 20
451.262773562571
 30
0.0
 10
249.575635287466
 20
451.262773562571
 30
0.0
 10
249.55909692369
 20
451.262773562571
 30
0.0
 10
249.5578763875446
 20
451.262773562571
 30
0.0
 10
249.5563504606862
 20
451.262773562571
 30
0.0
 10
249.5548245338259
 20
451.262773562571
 30
0.0
  0
SPLINE
  5
C0
330
70
100
AcDbEntity
  8
0
 62
    18
420
        0
370
     9
100
AcDbSpline
210
0.0
220
0.0
230
1.0
 70
     8
 71
     3
 72
   125
 73
   121
 74
     0
 42
0.0000000001
 43
0.0000000001
 40
0.0
 40
0.0
 40
0.0
 40
0.0
 40
1.0
 40
1.0
 40
1.0
 40
2.0
 40
2.0
 40
2.0
 40
3.0
 40
3.0
 40
3.0
 40
4.0
 40
4.0
 40
4.0
 40
5.0
 40
5.0
 40
5.0
 40
6.0
 40
6.0
 40
6.0
 40
7.0
 40
7.0
 40
7.0
 40
8.0
 40
8.0
 40
8.0
 40
9.0
 40
9.0
 40
9.0
 40
10.0
 40
10.0
 40
10.0
 40
11.0
 40
11.0
 40
11.0
 40
12.0
 40
12.0
 40
12.0
 40
13.0
 40
13.0
 40
13.0
 40
14.0
 40
14.0
 40
14.0
 40
15.0
 40
15.0
 40
15.0
 40
16.0
 40
16.0
 40
16.0
 40
17.0
 40
17.0
 40
17.0
 40
18.0
 40
18.0
 40
18.0
 40
19.0
 40
19.0
 40
19.0
 40
20.0
 40
20.0
 40
20.0
 40
21.0
 40
21.0
 40
21.0
 40
22.0
 40
22.0
 40
22.0
 40
23.0
 40
23.0
 40
23.0
 40
24.0
 40
24.0
 40
24.0
 40
25.0
 40
25.0
 40
25.0
 40
26.0
 40
26.0
 40
26.0
 40
27.0
 40
27.0
 40
27.0
 40
28.0
 40
28.0
 40
28.0
 40
29.0
 40
29.0
 40
29.0
 40
30.0
 40
30.0
 40
30.0
 40
31.0
 40
31.0
 40
31.0
 40
32.0
 40
32.0
 40
32.0
 40
33.0
 40
33.0
 40
33.0
 40
34.0
 40
34.0
 40
34.0
 40
35.0
 40
35.0
 40
35.0
 40
36.0
 40
36.0
 40
36.0
 40
37.0
 40
37.0
 40
37.0
 40
38.0
 40
38.0
 40
38.0
 40
39.0
 40
39.0
 40
39.0
 40
40.0
 40
40.0
 40
40.0
 40
40.0
 10
249.1760710258723
 20
450.6689974167302
 30
0.0
 10
249.1762260229125
 20
450.6689481373132
 30
0.0
 10
249.1763810199545
 20
450.6688988578925
 30
0.0
 10
249.1765324725847
 20
450.6688495820444
 30
0.0
 10
249.1946719729303
 20
450.6629478074819
 30
0.0
 10
249.1619673262767
 20
450.6570972414801
 30
0.0
 10
249.1190012970337
 20
450.6511333243006
 30
0.0
 10
249.0755033151008
 20
450.6450955692116
 30
0.0
 10
249.0214882899663
 20
450.6389416388165
 30
0.0
 10
248.946191066364
 20
450.6327390214456
 30
0.0
 10
248.8625629622193
 20
450.6258501468392
 30
0.0
 10
248.7526828175678
 20
450.6189012158201
 30
0.0
 10
248.6204310345793
 20
450.6119031715743
 30
0.0
 10
248.4873124024443
 20
450.6048592583929
 30
0.0
 10
248.3315278993968
 20
450.5977655860433
 30
0.0
 10
248.1527308274099
 20
450.5906532149029
 30
0.0
 10
247.9734426372516
 20
450.5835213075652
 30
0.0
 10
247.7710152830923
 20
450.5763705985692
 30
0.0
 10
247.5464776511753
 20
450.5692274990442
 30
0.0
 10
247.3221820162498
 20
450.5620920980446
 30
0.0
 10
247.0758237368928
 20
450.5549642901232
 30
0.0
 10
246.8082700409423
 20
450.5478710118395
 30
0.0
 10
246.5420207958278
 20
450.5408123166444
 30
0.0
 10
246.2547823056657
 20
450.5337878152086
 30
0.0
 10
245.9476808879708
 20
450.5268261177543
 30
0.0
 10
245.6707468476752
 20
450.5205482860938
 30
0.0
 10
245.3776605844841
 20
450.514321525653
 30
0.0
 10
245.0693059238047
 20
450.5081592497435
 30
0.0
 10
244.7642898245876
 20
450.5020636929066
 30
0.0
 10
244.4443341604847
 20
450.4960312318135
 30
0.0
 10
244.1104065563786
 20
450.4901001064836
 30
0.0
 10
243.7797548329063
 20
450.4842271663956
 30
0.0
 10
243.4354039585023
 20
450.4784535835852
 30
0.0
 10
243.0783671247727
 20
450.4725785852706
 30
0.0
 10
242.7177004566029
 20
450.4666438584672
 30
0.0
 10
242.344088572906
 20
450.4606056435868
 30
0.0
 10
241.9586567134929
 20
450.4545052927778
 30
0.0
 10
241.5690302818284
 20
450.448338553163
 30
0.0
 10
241.1673252060254
 20
450.442108317834
 30
0.0
 10
240.7547748154693
 20
450.435827421169
 30
0.0
 10
240.3389963511663
 20
450.4294973785154
 30
0.0
 10
239.9122021859175
 20
450.4231158786051
 30
0.0
 10
239.47573295647
 20
450.4167046217526
 30
0.0
 10
239.037210794434
 20
450.4102632095591
 30
0.0
 10
238.5889223408458
 20
450.4037917598407
 30
0.0
 10
238.1322535889385
 20
450.3973100236935
 30
0.0
 10
237.6291849874497
 20
450.3901697104438
 30
0.0
 10
237.1159466117215
 20
450.3830169142684
 30
0.0
 10
236.5945334637772
 20
450.3758788374825
 30
0.0
 10
236.0742253065791
 20
450.3687558878709
 30
0.0
 10
235.5457769887808
 20
450.3616475953304
 30
0.0
 10
235.0111936821986
 20
450.3545837099582
 30
0.0
 10
234.4797655599896
 20
450.3475615166144
 30
0.0
 10
233.9422746543796
 20
450.3405832077942
 30
0.0
 10
233.4007497116409
 20
450.3336646889883
 30
0.0
 10
232.8644258461909
 20
450.3268126191096
 30
0.0
 10
232.3241450613195
 20
450.320019196256
 30
0.0
 10
231.7818944845521
 20
450.3133477990695
 30
0.0
 10
231.2467939590633
 20
450.3067643701278
 30
0.0
 10
230.7097752460823
 20
450.3002997700377
 30
0.0
 10
230.1728004927018
 20
450.2938371515837
 30
0.0
 10
229.6847962244765
 20
450.2879639045268
 30
0.0
 10
229.1968282634944
 20
450.2820922941509
 30
0.0
 10
228.7103191386623
 20
450.2761203577929
 30
0.0
 10
228.2177876904343
 20
450.2700744969597
 30
0.0
 10
227.7267514187197
 20
450.263925810973
 30
0.0
 10
227.2387130306461
 20
450.2577256207977
 30
0.0
 10
226.7461055059584
 20
450.2514673829018
 30
0.0
 10
226.2565522615432
 20
450.2451566719109
 30
0.0
 10
225.7715699265073
 20
450.2388042168741
 30
0.0
 10
225.2835471922144
 20
450.2324119377071
 30
0.0
 10
224.8001528578543
 20
450.2259773894575
 30
0.0
 10
224.3229064194738
 20
450.2195231264876
 30
0.0
 10
223.8441676100474
 20
450.2130486807463
 30
0.0
 10
223.3716152062107
 20
450.2065543967937
 30
0.0
 10
222.906741134856
 20
450.2000603671722
 30
0.0
 10
222.4418831382118
 20
450.1935665621049
 30
0.0
 10
221.9847029430475
 20
450.1870730113523
 30
0.0
 10
221.5366517324946
 20
450.1805996271677
 30
0.0
 10
221.0900279736143
 20
450.1741468666177
 30
0.0
 10
220.6524751237239
 20
450.1677141443424
 30
0.0
 10
220.2253444453581
 20
450.1613245313283
 30
0.0
 10
219.7586824206764
 20
450.1543435536141
 30
0.0
 10
219.3044610040397
 20
450.1474140340278
 30
0.0
 10
218.8644138033187
 20
450.1405482806612
 30
0.0
 10
218.4290294445291
 20
450.1337552784052
 30
0.0
 10
218.0075205065969
 20
450.1270246981648
 30
0.0
 10
217.6014254981465
 20
450.1204323787578
 30
0.0
 10
217.2005385408884
 20
450.1139246039447
 30
0.0
 10
216.8146726899022
 20
450.1075515663969
 30
0.0
 10
216.4452088415965
 20
450.1010952497263
 30
0.0
 10
216.0730920681044
 20
450.0945925736514
 30
0.0
 10
215.7176136912403
 20
450.0880054181952
 30
0.0
 10
215.3800597764966
 20
450.0813291679487
 30
0.0
 10
215.0383529216506
 20
450.0745707795131
 30
0.0
 10
214.7150142928913
 20
450.0677210905259
 30
0.0
 10
214.4112593748514
 20
450.06081384564
 30
0.0
 10
214.1328055126178
 20
450.054481934937
 30
0.0
 10
213.8708088084714
 20
450.0481016571748
 30
0.0
 10
213.6260816310132
 20
450.0416907879216
 30
0.0
 10
213.3802039312241
 20
450.0352497796038
 30
0.0
 10
213.151758516351
 20
450.0287778914853
 30
0.0
 10
212.9414257629851
 20
450.0222960593974
 30
0.0
 10
212.7307679022333
 20
450.0158042084613
 30
0.0
 10
212.5382787390636
 20
450.009302382793
 30
0.0
 10
212.36473438944
 20
450.0028112172031
 30
0.0
 10
212.1914702314343
 20
449.9963305317606
 30
0.0
 10
212.0370897626226
 20
449.9898604720028
 30
0.0
 10
211.9014528234338
 20
449.9834206432815
 30
0.0
 10
211.7664601030892
 20
449.9770114010561
 30
0.0
 10
211.6500332873111
 20
449.97063210338
 30
0.0
 10
211.5548587572193
 20
449.9643057649127
 30
0.0
 10
211.4604294958426
 20
449.9580289651412
 30
0.0
 10
211.38692098921
 20
449.9518042984245
 30
0.0
 10
211.3259945239379
 20
449.9456394679318
 30
0.0
 10
211.2657279039968
 20
449.9395414037417
 30
0.0
 10
211.2177722693496
 20
449.9335018867159
 30
0.0
 10
211.2137040717071
 20
449.9275810581994
 30
0.0
 10
211.2128146660871
 20
449.9262866230155
 30
0.0
 10
211.2140229242032
 20
449.9249978607249
 30
0.0
 10
211.2152311823183
 20
449.9237090984307
 30
0.0
  0
SPLINE
  5
C1
330
70
100
AcDbEntity
  8
0
 62
    18
420
        0
370
     9
100
AcDbSpline
210
0.0
220
0.0
230
1.0
 70
     8
 71
     3
 72
    71
 73
    67
 74
     0
 42
0.0000000001
 43
0.0000000001
 40
0.0
 40
0.0
 40
0.0
 40
0.0
 40
1.0
 40
1.0
 40
1.0
 40
2.0
 40
2.0
 40
2.0
 40
3.0
 40
3.0
 40
3.0
 40
4.0
 40
4.0
 40
4.0
 40
5.0
 40
5.0
 40
5.0
 40
6.0
 40
6.0
 40
6.0
 40
7.0
 40
7.0
 40
7.0
 40
8.0
 40
8.0
 40
8.0
 40
9.0
 40
9.0
 40
9.0
 40
10.0
 40
10.0
 40
10.0
 40
11.0
 40
11.0
 40
11.0
 40
12.0
 40
12.0
 40
12.0
 40
13.0
 40
13.0
 40
13.0
 40
14.0
 40
14.0
 40
14.0
 40
15.0
 40
15.0
 40
15.0
 40
16.0
 40
16.0
 40
16.0
 40
17.0
 40
17.0
 40
17.0
 40
18.0
 40
18.0
 40
18.0
 40
19.0
 40
19.0
 40
19.0
 40
20.0
 40
20.0
 40
20.0
 40
21.0
 40
21.0
 40
21.0
 40
22.0
 40
22.0
 40
22.0
 40
22.0
 10
249.1760710258723
 20
449.1689974167302
 30
0.0
 10
249.1762260229125
 20
449.1689481373132
 30
0.0
 10
249.1763810199545
 20
449.1688988578926
 30
0.0
 10
249.1765324725847
 20
449.1688495820445
 30
0.0
 10
249.1946719729303
 20
449.1629478074819
 30
0.0
 10
249.1619673262767
 20
449.1570972414802
 30
0.0
 10
249.1190012970337
 20
449.1511333243006
 30
0.0
 10
249.0755033151008
 20
449.1450955692116
 30
0.0
 10
249.0214882899663
 20
449.1389416388165
 30
0.0
 10
248.946191066364
 20
449.1327390214455
 30
0.0
 10
248.8625629622193
 20
449.1258501468392
 30
0.0
 10
248.7526828175678
 20
449.1189012158201
 30
0.0
 10
248.6204310345793
 20
449.1119031715743
 30
0.0
 10
248.4873124024443
 20
449.1048592583929
 30
0.0
 10
248.3315278993968
 20
449.0977655860433
 30
0.0
 10
248.1527308274099
 20
449.0906532149028
 30
0.0
 10
247.9734426372516
 20
449.0835213075651
 30
0.0
 10
247.7710152830941
 20
449.0763705985691
 30
0.0
 10
247.5464776511753
 20
449.0692274990442
 30
0.0
 10
247.3221820162489
 20
449.0620920980445
 30
0.0
 10
247.0758237368891
 20
449.0549642901233
 30
0.0
 10
246.8082700409423
 20
449.0478710118395
 30
0.0
 10
246.5420207958332
 20
449.0408123166444
 30
0.0
 10
246.2547823056821
 20
449.0337878152086
 30
0.0
 10
245.9476808879708
 20
449.0268261177543
 30
0.0
 10
245.6707468476607
 20
449.0205482860956
 30
0.0
 10
245.3776605844314
 20
449.014321525653
 30
0.0
 10
245.0693059238047
 20
449.0081592497435
 30
0.0
 10
244.7642898246404
 20
449.0020636929066
 30
0.0
 10
244.4443341606739
 20
448.9960312318098
 30
0.0
 10
244.1104065563786
 20
448.9901001064835
 30
0.0
 10
243.7797548327207
 20
448.984227166401
 30
0.0
 10
243.4354039578093
 20
448.9784535836033
 30
0.0
 10
243.0783671247727
 20
448.9725785852706
 30
0.0
 10
242.7177004573014
 20
448.9666438584508
 30
0.0
 10
242.344088575529
 20
448.9606056435214
 30
0.0
 10
241.9586567134929
 20
448.9545052927779
 30
0.0
 10
241.5690302791763
 20
448.9483385532285
 30
0.0
 10
241.1673251960756
 20
448.9421083180814
 30
0.0
 10
240.7547748154693
 20
448.935827421169
 30
0.0
 10
240.3389963611926
 20
448.9294973782661
 30
0.0
 10
239.9122022234906
 20
448.9231158776702
 30
0.0
 10
239.47573295647
 20
448.9167046217525
 30
0.0
 10
239.0372107566864
 20
448.9102632104978
 30
0.0
 10
238.5889221996176
 20
448.9037917633531
 30
0.0
 10
238.1322535889385
 20
448.8973100236935
 30
0.0
 10
237.6291851430278
 20
448.8901697065767
 30
0.0
 10
237.1159472198406
 20
448.883016899149
 30
0.0
 10
236.5945334637772
 20
448.8758788374825
 30
0.0
 10
236.0742246997497
 20
448.8687559029594
 30
0.0
 10
235.5457747189585
 20
448.8616476517627
 30
0.0
 10
235.0111936821986
 20
448.8545837099581
 30
0.0
 10
234.479767816415
 20
448.8475614605149
 30
0.0
 10
233.9422830537615
 20
448.8405829989633
 30
0.0
 10
233.400749711639
 20
448.8336646889884
 30
0.0
 10
232.8644175274813
 20
448.8268128259323
 30
0.0
 10
232.3241141595654
 20
448.820019964548
 30
0.0
 10
231.7818944845521
 20
448.8133477990695
 30
0.0
 10
231.2468244533493
 20
448.8067636119658
 30
0.0
 10
230.7098883182598
 20
448.8002969587914
 30
0.0
 10
230.1728004927018
 20
448.7938371515838
 30
0.0
 10
229.6846934641408
 20
448.7879664593974
 30
0.0
 10
229.1964611509493
 20
448.7821014214524
 30
0.0
 10
228.7103191386623
 20
448.7761203577929
 30
0.0
 10
228.3521223296621
 20
448.7717134193617
 30
0.0
 10
227.9950603378993
 20
448.7672434909663
 30
0.0
 10
227.6379983461384
 20
448.762773562571
 30
0.0
  0
SPLINE
  5
C2
330
70
100
AcDbEntity
  8
0
 62
    18
420
        0
370
     9
100
AcDbSpline
210
0.0
220
0.0
230
1.0
 70
    24
 71
     3
 72
    59
 73
    55
 74
     0
 42
0.0000000001
 43
0.0000000001
 40
0.0
 40
0.0
 40
0.0
 40
0.0
 40
1.0
 40
1.0
 40
1.0
 40
2.0
 40
2.0
 40
2.0
 40
3.0
 40
3.0
 40
3.0
 40
4.0
 40
4.0
 40
4.0
 40
5.0
 40
5.0
 40
5.0
 40
6.0
 40
6.0
 40
6.0
 40
7.0
 40
7.0
 40
7.0
 40
8.0
 40
8.0
 40
8.0
 40
9.0
 40
9.0
 40
9.0
 40
10.0
 40
10.0
 40
10.0
 40
11.0
 40
11.0
 40
11.0
 40
12.0
 40
12.0
 40
12.0
 40
13.0
 40
13.0
 40
13.0
 40
14.0
 40
14.0
 40
14.0
 40
15.0
 40
15.0
 40
15.0
 40
16.0
 40
16.0
 40
16.0
 40
17.0
 40
17.0
 40
17.0
 40
18.0
 40
18.0
 40
18.0
 40
18.0
 10
210.9369707477708
 20
451.262773562571
 30
0.0
 10
210.9334784416414
 20
451.262773562571
 30
0.0
 10
210.9299861355121
 20
451.262773562571
 30
0.0
 10
210.9288471456812
 20
451.262773562571
 30
0.0
 10
210.9237449749107
 20
451.262773562571
 30
0.0
 10
210.9658654796867
 20
451.262773562571
 30
0.0
 10
211.0228139397395
 20
451.262773562571
 30
0.0
 10
211.0793777536201
 20
451.262773562571
 30
0.0
 10
211.1505698947413
 20
451.262773562571
 30
0.0
 10
211.2446962415288
 20
451.262773562571
 30
0.0
 10
211.3394541194239
 20
451.262773562571
 30
0.0
 10
211.4574549848112
 20
451.262773562571
 30
0.0
 10
211.5959859780533
 20
451.262773562571
 30
0.0
 10
211.7335937138014
 20
451.262773562571
 30
0.0
 10
211.8914588379794
 20
451.262773562571
 30
0.0
 10
212.0696729882993
 20
451.262773562571
 30
0.0
 10
212.2490829046401
 20
451.262773562571
 30
0.0
 10
212.4491158355422
 20
451.262773562571
 30
0.0
 10
212.6689308051709
 20
451.262773562571
 30
0.0
 10
212.8872807073894
 20
451.262773562571
 30
0.0
 10
213.1251498324054
 20
451.262773562571
 30
0.0
 10
213.3817967412597
 20
451.262773562571
 30
0.0
 10
213.6401656262588
 20
451.262773562571
 30
0.0
 10
213.9175651200494
 20
451.262773562571
 30
0.0
 10
214.2130442615726
 20
451.262773562571
 30
0.0
 10
214.5147234729402
 20
451.262773562571
 30
0.0
 10
214.8352490266334
 20
451.262773562571
 30
0.0
 10
215.1735355388628
 20
451.262773562571
 30
0.0
 10
215.5142212511428
 20
451.262773562571
 30
0.0
 10
215.872920744333
 20
451.262773562571
 30
0.0
 10
216.2482224460055
 20
451.262773562571
 30
0.0
 10
216.6169762122554
 20
451.262773562571
 30
0.0
 10
217.0017579191481
 20
451.262773562571
 30
0.0
 10
217.4010841926574
 20
451.262773562571
 30
0.0
 10
217.8030951128594
 20
451.262773562571
 30
0.0
 10
218.2198468215702
 20
451.262773562571
 30
0.0
 10
218.6499996280891
 20
451.262773562571
 30
0.0
 10
219.1156605665674
 20
451.262773562571
 30
0.0
 10
219.5970263796635
 20
451.262773562571
 30
0.0
 10
220.0922239821266
 20
451.262773562571
 30
0.0
 10
220.5913792436422
 20
451.262773562571
 30
0.0
 10
221.1045882675517
 20
451.262773562571
 30
0.0
 10
221.6295791119528
 20
451.262773562571
 30
0.0
 10
221.8984777062797
 20
451.262773562571
 30
0.0
 10
222.1704672080914
 20
451.262773562571
 30
0.0
 10
222.4453515001787
 20
451.262773562571
 30
0.0
 10
222.7208154304244
 20
451.262773562571
 30
0.0
 10
222.9991863720879
 20
451.262773562571
 30
0.0
 10
223.2799805884233
 20
451.262773562571
 30
0.0
 10
223.5625739476882
 20
451.262773562571
 30
0.0
 10
223.8476217345806
 20
451.262773562571
 30
0.0
 10
224.1354973926
 20
451.262773562571
 30
0.0
 10
224.4239905140775
 20
451.262773562571
 30
0.0
 10
224.7153236506738
 20
451.262773562571
 30
0.0
 10
225.0066567872718
 20
451.262773562571
 30
0.0
  0
SPLINE
  5
C3
330
70
100
AcDbEntity
  8
0
 62
    18
420
        0
370
     9
100
AcDbSpline
210
0.0
220
0.0
230
1.0
 70
    24
 71
     3
 72
    71
 73
    67
 74
     0
 42
0.0000000001
 43
0.0000000001
 40
0.0
 40
0.0
 40
0.0
 40
0.0
 40
1.0
 40
1.0
 40
1.0
 40
2.0
 40
2.0
 40
2.0
 40
3.0
 40
3.0
 40
3.0
 40
4.0
 40
4.0
 40
4.0
 40
5.0
 40
5.0
 40
5.0
 40
6.0
 40
6.0
 40
6.0
 40
7.0
 40
7.0
 40
7.0
 40
8.0
 40
8.0
 40
8.0
 40
9.0
 40
9.0
 40
9.0
 40
10.0
 40
10.0
 40
10.0
 40
11.0
 40
11.0
 40
11.0
 40
12.0
 40
12.0
 40
12.0
 40
13.0
 40
13.0
 40
13.0
 40
14.0
 40
14.0
 40
14.0
 40
15.0
 40
15.0
 40
15.0
 40
16.0
 40
16.0
 40
16.0
 40
17.0
 40
17.0
 40
17.0
 40
18.0
 40
18.0
 40
18.0
 40
19.0
 40
19.0
 40
19.0
 40
20.0
 40
20.0
 40
20.0
 40
21.0
 40
21.0
 40
21.0
 40
22.0
 40
22.0
 40
22.0
 40
22.0
 10
227.6379983461384
 20
448.762773562571
 30
0.0
 10
227.9673557048145
 20
448.762773562571
 30
0.0
 10
228.2967130634925
 20
448.762773562571
 30
0.0
 10
228.627330011529
 20
448.762773562571
 30
0.0
 10
228.9579469669325
 20
448.762773562571
 30
0.0
 10
229.2898235117527
 20
448.762773562571
 30
0.0
 10
229.6221045677785
 20
448.762773562571
 30
0.0
 10
230.1504411430606
 20
448.762773562571
 30
0.0
 10
230.6798004006587
 20
448.762773562571
 30
0.0
 10
231.2084700008263
 20
448.762773562571
 30
0.0
 10
231.740816866034
 20
448.762773562571
 30
0.0
 10
232.2724644463497
 20
448.762773562571
 30
0.0
 10
232.8015422099279
 20
448.762773562571
 30
0.0
 10
233.3269562267369
 20
448.762773562571
 30
0.0
 10
233.8498358944061
 20
448.762773562571
 30
0.0
 10
234.3684088931759
 20
448.762773562571
 30
0.0
 10
234.8905649607104
 20
448.762773562571
 30
0.0
 10
235.4083546400716
 20
448.762773562571
 30
0.0
 10
235.9199781890447
 20
448.762773562571
 30
0.0
 10
236.4280909699455
 20
448.762773562571
 30
0.0
 10
236.9301219542604
 20
448.762773562571
 30
0.0
 10
237.4243634367986
 20
448.762773562571
 30
0.0
 10
237.9220200064019
 20
448.762773562571
 30
0.0
 10
238.4117790552364
 20
448.762773562571
 30
0.0
 10
238.8919410020599
 20
448.762773562571
 30
0.0
 10
239.3688079073099
 20
448.762773562571
 30
0.0
 10
239.8362089760385
 20
448.762773562571
 30
0.0
 10
240.2925500804367
 20
448.762773562571
 30
0.0
 10
240.7520442609848
 20
448.762773562571
 30
0.0
 10
241.2003251121614
 20
448.762773562571
 30
0.0
 10
241.6358527949878
 20
448.762773562571
 30
0.0
 10
242.0683918256173
 20
448.762773562571
 30
0.0
 10
242.4883521154288
 20
448.762773562571
 30
0.0
 10
242.8942451184457
 20
448.762773562571
 30
0.0
 10
243.3029412933238
 20
448.762773562571
 30
0.0
 10
243.6973752079093
 20
448.762773562571
 30
0.0
 10
244.076427991954
 20
448.762773562571
 30
0.0
 10
244.4635508291785
 20
448.762773562571
 30
0.0
 10
244.8346306339963
 20
448.762773562571
 30
0.0
 10
245.188455900282
 20
448.762773562571
 30
0.0
 10
245.5447816507412
 20
448.762773562571
 30
0.0
 10
245.8836081251838
 20
448.762773562571
 30
0.0
 10
246.2037086390073
 20
448.762773562571
 30
0.0
 10
246.5163760945388
 20
448.762773562571
 30
0.0
 10
246.8111771636841
 20
448.762773562571
 30
0.0
 10
247.0871218741513
 20
448.762773562571
 30
0.0
 10
247.3649529825461
 20
448.762773562571
 30
0.0
 10
247.6236690414635
 20
448.762773562571
 30
0.0
 10
247.8624036621104
 20
448.762773562571
 30
0.0
 10
248.0995173467336
 20
448.762773562571
 30
0.0
 10
248.3169200078128
 20
448.762773562571
 30
0.0
 10
248.5137880291359
 20
448.762773562571
 30
0.0
 10
248.7120018923661
 20
448.762773562571
 30
0.0
 10
248.8893993956963
 20
448.762773562571
 30
0.0
 10
249.0457205270622
 20
448.762773562571
 30
0.0
 10
249.2009802565544
 20
448.762773562571
 30
0.0
 10
249.3354488545238
 20
448.762773562571
 30
0.0
 10
249.4473857940875
 20
448.762773562571
 30
0.0
 10
249.5600879193343
 20
448.762773562571
 30
0.0
 10
249.6499492865924
 20
448.762773562571
 30
0.0
 10
249.7215277217701
 20
448.762773562571
 30
0.0
 10
249.7926201720083
 20
448.762773562571
 30
0.0
 10
249.8456771129085
 20
448.762773562571
 30
0.0
 10
249.8625757551045
 20
448.762773562571
 30
0.0
 10
249.8722358467194
 20
448.762773562571
 30
0.0
 10
249.8700800369525
 20
448.762773562571
 30
0.0
 10
249.8679242271856
 20
448.762773562571
 30
0.0
  0
LINE
  5
C4
330
70
100
AcDbEntity
  8
0
 62
    18
420
        0
370
     9
100
AcDbLine
 10
230.1884368934306
 20
454.762773562582
 30
0.0
 11
249.1884368934307
 21
454.762773562582
 31
0.0
  0
LINE
  5
C5
330
70
100
AcDbEntity
  8
0
 62
    18
420
        0
370
     9
100
AcDbLine
 10
211.1884368934306
 20
454.762773562582
 30
0.0
 11
230.1884368934306
 21
454.762773562582
 31
0.0
  0
SPLINE
  5
C6
330
70
100
AcDbEntity
  8
0
 62
    18
420
        0
370
     9
100
AcDbSpline
210
0.0
220
0.0
230
1.0
 70
    24
 71
     3
 72
    80
 73
    76
 74
     0
 42
0.0000000001
 43
0.0000000001
 40
0.0
 40
0.0
 40
0.0
 40
0.0
 40
1.0
 40
1.0
 40
1.0
 40
2.0
 40
2.0
 40
2.0
 40
3.0
 40
3.0
 40
3.0
 40
4.0
 40
4.0
 40
4.0
 40
5.0
 40
5.0
 40
5.0
 40
6.0
 40
6.0
 40
6.0
 40
7.0
 40
7.0
 40
7.0
 40
8.0
 40
8.0
 40
8.0
 40
9.0
 40
9.0
 40
9.0
 40
10.0
 40
10.0
 40
10.0
 40
11.0
 40
11.0
 40
11.0
 40
12.0
 40
12.0
 40
12.0
 40
13.0
 40
13.0
 40
13.0
 40
14.0
 40
14.0
 40
14.0
 40
15.0
 40
15.0
 40
15.0
 40
16.0
 40
16.0
 40
16.0
 40
17.0
 40
17.0
 40
17.0
 40
18.0
 40
18.0
 40
18.0
 40
19.0
 40
19.0
 40
19.0
 40
20.0
 40
20.0
 40
20.0
 40
21.0
 40
21.0
 40
21.0
 40
22.0
 40
22.0
 40
22.0
 40
23.0
 40
23.0
 40
23.0
 40
24.0
 40
24.0
 40
24.0
 40
25.0
 40
25.0
 40
25.0
 40
25.0
 10
211.2071086309106
 20
448.762773562571
 30
0.0
 10
211.2044661647405
 20
448.762773562571
 30
0.0
 10
211.2018236985714
 20
448.762773562571
 30
0.0
 10
211.2013555838648
 20
448.762773562571
 30
0.0
 10
211.2000362695289
 20
448.762773562571
 30
0.0
 10
211.215988124356
 20
448.762773562571
 30
0.0
 10
211.2385356934628
 20
448.762773562571
 30
0.0
 10
211.2595144598708
 20
448.762773562571
 30
0.0
 10
211.2862030444075
 20
448.762773562571
 30
0.0
 10
211.3210784989515
 20
448.762773562571
 30
0.0
 10
211.3559539534945
 20
448.762773562571
 30
0.0
 10
211.3990162780437
 20
448.762773562571
 30
0.0
 10
211.4495971688948
 20
448.762773562571
 30
0.0
 10
211.5316833488259
 20
448.762773562571
 30
0.0
 10
211.6335712150631
 20
448.762773562571
 30
0.0
 10
211.7553089014118
 20
448.762773562571
 30
0.0
 10
211.8635799779176
 20
448.762773562571
 30
0.0
 10
211.9875522020793
 20
448.762773562571
 30
0.0
 10
212.1267711277169
 20
448.762773562571
 30
0.0
 10
212.2659900533545
 20
448.762773562571
 30
0.0
 10
212.420455680468
 20
448.762773562571
 30
0.0
 10
212.5898625091922
 20
448.762773562571
 30
0.0
 10
212.712813085499
 20
448.762773562571
 30
0.0
 10
212.8436338449419
 20
448.762773562571
 30
0.0
 10
212.9821119760209
 20
448.762773562571
 30
0.0
 10
213.1205901070998
 20
448.762773562571
 30
0.0
 10
213.2667256098157
 20
448.762773562571
 30
0.0
 10
213.4203682979942
 20
448.762773562571
 30
0.0
 10
213.6700625370086
 20
448.762773562571
 30
0.0
 10
213.9395843872862
 20
448.762773562571
 30
0.0
 10
214.2279231170996
 20
448.762773562571
 30
0.0
 10
214.4847973377537
 20
448.762773562571
 30
0.0
 10
214.7566057832591
 20
448.762773562571
 30
0.0
 10
215.0425546906681
 20
448.762773562571
 30
0.0
 10
215.3285035980771
 20
448.762773562571
 30
0.0
 10
215.6285929673895
 20
448.762773562571
 30
0.0
 10
215.9420146489611
 20
448.762773562571
 30
0.0
 10
216.1584931990565
 20
448.762773562571
 30
0.0
 10
216.3813320424788
 20
448.762773562571
 30
0.0
 10
216.6102100438411
 20
448.762773562571
 30
0.0
 10
216.8390880452025
 20
448.762773562571
 30
0.0
 10
217.0740052045039
 20
448.762773562571
 30
0.0
 10
217.3147113621999
 20
448.762773562571
 30
0.0
 10
217.7058978324731
 20
448.762773562571
 30
0.0
 10
218.1123739223149
 20
448.762773562571
 30
0.0
 10
218.5324918402821
 20
448.762773562571
 30
0.0
 10
218.7984687407379
 20
448.762773562571
 30
0.0
 10
219.0699135089935
 20
448.762773562571
 30
0.0
 10
219.3464846343377
 20
448.762773562571
 30
0.0
 10
219.6230557596809
 20
448.762773562571
 30
0.0
 10
219.9047532421127
 20
448.762773562571
 30
0.0
 10
220.191165080002
 20
448.762773562571
 30
0.0
 10
220.4245023379272
 20
448.762773562571
 30
0.0
 10
220.6609686175625
 20
448.762773562571
 30
0.0
 10
220.9003428268543
 20
448.762773562571
 30
0.0
 10
221.1540697793262
 20
448.762773562571
 30
0.0
 10
221.4110638315105
 20
448.762773562571
 30
0.0
 10
221.6710834836831
 20
448.762773562571
 30
0.0
 10
222.0610357292553
 20
448.762773562571
 30
0.0
 10
222.4577928790186
 20
448.762773562571
 30
0.0
 10
222.8603002790851
 20
448.762773562571
 30
0.0
 10
223.1315674659827
 20
448.762773562571
 30
0.0
 10
223.4054464145184
 20
448.762773562571
 30
0.0
 10
223.6816654449276
 20
448.762773562571
 30
0.0
 10
223.9627985311045
 20
448.762773562571
 30
0.0
 10
224.2463557019246
 20
448.762773562571
 30
0.0
 10
224.5320512219469
 20
448.762773562571
 30
0.0
 10
224.8916923337647
 20
448.762773562571
 30
0.0
 10
225.2547219685321
 20
448.762773562571
 30
0.0
 10
225.6203457975453
 20
448.762773562571
 30
0.0
 10
225.9859696265585
 20
448.762773562571
 30
0.0
 10
226.3541876498211
 20
448.762773562571
 30
0.0
 10
226.7248057150055
 20
448.762773562571
 30
0.0
 10
227.0281315097136
 20
448.762773562571
 30
0.0
 10
227.333064927926
 20
448.762773562571
 30
0.0
 10
227.6379983461384
 20
448.762773562571
 30
0.0
  0
CIRCLE
  5
C7
330
70
100
AcDbEntity
  8
0
 62
    18
420
        0
370
     9
100
AcDbCircle
 10
230.1884368934306
 20
486.302694131381
 30
0.0
 40
12.0
  0
CIRCLE
  5
C8
330
70
100
AcDbEntity
  8
0
 62
    18
420
        0
370
     9
100
AcDbCircle
 10
230.1884368934306
 20
486.302694131381
 30
0.0
 40
19.0
  0
CIRCLE
  5
C9
330
70
100
AcDbEntity
  8
0
 62
    18
420
        0
370
     9
100
AcDbCircle
 10
230.1884368934306
 20
501.5026941313808
 30
0.0
 40
1.600000000000363
  0
CIRCLE
  5
CA
330
70
100
AcDbEntity
  8
0
 62
    18
420
        0
370
     9
100
AcDbCircle
 10
230.1884368934309
 20
471.1026941313805
 30
0.0
 40
1.599999999999909
  0
CIRCLE
  5
CB
330
70
100
AcDbEntity
  8
0
 62
    18
420
        0
370
     9
100
AcDbCircle
 10
230.1884368934306
 20
486.3026941313801
 30
0.0
 40
19.90000000000054
  0
LINE
  5
CC
330
70
100
AcDbEntity
  8
0
 62
    18
420
        0
370
     9
100
AcDbLine
 10
230.1884368934306
 20
486.302694131381
 30
0.0
 11
230.1884368934306
 21
488.8026941313809
 31
0.0
  0
LINE
  5
CD
330
70
100
AcDbEntity
  8
0
 62
    18
420
        0
370
     9
100
AcDbLine
 10
230.1884368934306
 20
486.302694131381
 30
0.0
 11
227.6884368934307
 21
486.302694131381
 31
0.0
  0
LINE
  5
CE
330
70
100
AcDbEntity
  8
0
 62
    18
420
        0
370
     9
100
AcDbLine
 10
230.1884368934306
 20
486.302694131381
 30
0.0
 11
230.1884368934306
 21
483.802694131381
 31
0.0
  0
LINE
  5
CF
330
70
100
AcDbEntity
  8
0
 62
    18
420
        0
370
     9
100
AcDbLine
 10
230.1884368934306
 20
486.302694131381
 30
0.0
 11
232.6884368934307
 21
486.302694131381
 31
0.0
  0
LINE
  5
D0
330
70
100
AcDbEntity
  8
0
 62
    18
420
        0
370
     9
100
AcDbLine
 10
230.1884368934306
 20
491.302694131381
 30
0.0
 11
230.1884368934306
 21
508.7026941313807
 31
0.0
  0
LINE
  5
D1
330
70
100
AcDbEntity
  8
0
 62
    18
420
        0
370
     9
100
AcDbLine
 10
225.1884368934307
 20
486.302694131381
 30
0.0
 11
207.7884368934301
 21
486.302694131381
 31
0.0
  0
LINE
  5
D2
330
70
100
AcDbEntity
  8
0
 62
    18
420
        0
370
     9
100
AcDbLine
 10
230.1884368934306
 20
481.302694131381
 30
0.0
 11
230.1884368934306
 21
463.9026941313804
 31
0.0
  0
LINE
  5
D3
330
70
100
AcDbEntity
  8
0
 62
    18
420
        0
370
     9
100
AcDbLine
 10
235.1884368934307
 20
486.302694131381
 30
0.0
 11
252.5884368934303
 21
486.302694131381
 31
0.0
  0
LINE
  5
D4
330
70
100
AcDbEntity
  8
0
 62
    18
420
        0
370
     9
100
AcDbLine
 10
230.1884368934306
 20
501.5026941313808
 30
0.0
 11
230.1884368934306
 21
504.0026941313808
 31
0.0
  0
LINE
  5
D5
330
70
100
AcDbEntity
  8
0
 62
    18
420
        0
370
     9
100
AcDbLine
 10
230.1884368934306
 20
501.5026941313808
 30
0.0
 11
227.6884368934307
 21
501.5026941313808
 31
0.0
  0
LINE
  5
D6
330
70
100
AcDbEntity
  8
0
 62
    18
420
        0
370
     9
100
AcDbLine
 10
230.1884368934306
 20
501.5026941313808
 30
0.0
 11
230.1884368934306
 21
499.0026941313808
 31
0.0
  0
LINE
  5
D7
330
70
100
AcDbEntity
  8
0
 62
    18
420
        0
370
     9
100
AcDbLine
 10
230.1884368934306
 20
501.5026941313808
 30
0.0
 11
232.6884368934307
 21
501.5026941313808
 31
0.0
  0
LINE
  5
D8
330
70
100
AcDbEntity
  8
0
 62
    18
420
        0
370
     9
100
AcDbLine
 10
230.1884368934306
 20
504.0026941313808
 30
0.0
 11
230.1884368934306
 21
505.6026941313811
 31
0.0
  0
LINE
  5
D9
330
70
100
AcDbEntity
  8
0
 62
    18
420
        0
370
     9
100
AcDbLine
 10
227.6884368934307
 20
501.5026941313808
 30
0.0
 11
226.0884368934303
 21
501.5026941313808
 31
0.0
  0
LINE
  5
DA
330
70
100
AcDbEntity
  8
0
 62
    18
420
        0
370
     9
100
AcDbLine
 10
230.1884368934306
 20
499.0026941313808
 30
0.0
 11
230.1884368934306
 21
497.4026941313804
 31
0.0
  0
LINE
  5
DB
330
70
100
AcDbEntity
  8
0
 62
    18
420
        0
370
     9
100
AcDbLine
 10
232.6884368934307
 20
501.5026941313808
 30
0.0
 11
234.2884368934292
 21
501.5026941313808
 31
0.0
  0
LINE
  5
DC
330
70
100
AcDbEntity
  8
0
 62
    18
420
        0
370
     9
100
AcDbLine
 10
230.1884368934306
 20
471.1026941313812
 30
0.0
 11
230.1884368934306
 21
473.6026941313812
 31
0.0
  0
LINE
  5
DD
330
70
100
AcDbEntity
  8
0
 62
    18
420
        0
370
     9
100
AcDbLine
 10
230.1884368934306
 20
471.1026941313812
 30
0.0
 11
227.6884368934307
 21
471.1026941313812
 31
0.0
  0
LINE
  5
DE
330
70
100
AcDbEntity
  8
0
 62
    18
420
        0
370
     9
100
AcDbLine
 10
230.1884368934306
 20
471.1026941313812
 30
0.0
 11
230.1884368934306
 21
468.6026941313811
 31
0.0
  0
LINE
  5
DF
330
70
100
AcDbEntity
  8
0
 62
    18
420
        0
370
     9
100
AcDbLine
 10
230.1884368934306
 20
471.1026941313812
 30
0.0
 11
232.6884368934307
 21
471.1026941313812
 31
0.0
  0
LINE
  5
E0
330
70
100
AcDbEntity
  8
0
 62
    18
420
        0
370
     9
100
AcDbLine
 10
230.1884368934306
 20
473.6026941313812
 30
0.0
 11
230.1884368934306
 21
475.2026941313807
 31
0.0
  0
LINE
  5
E1
330
70
100
AcDbEntity
  8
0
 62
    18
420
        0
370
     9
100
AcDbLine
 10
227.6884368934307
 20
471.1026941313812
 30
0.0
 11
226.0884368934303
 21
471.1026941313812
 31
0.0
  0
LINE
  5
E2
330
70
100
AcDbEntity
  8
0
 62
    18
420
        0
370
     9
100
AcDbLine
 10
230.1884368934306
 20
468.6026941313811
 30
0.0
 11
230.1884368934306
 21
467.0026941313808
 31
0.0
  0
LINE
  5
E3
330
70
100
AcDbEntity
  8
0
 62
    18
420
        0
370
     9
100
AcDbLine
 10
232.6884368934307
 20
471.1026941313812
 30
0.0
 11
234.2884368934292
 21
471.1026941313812
 31
0.0
  0
LINE
  5
E4
330
70
100
AcDbEntity
  8
0
 62
    18
420
        0
370
     9
100
AcDbLine
 10
390.1058311673496
 20
415.0693273798096
 30
0.0
 11
435.3027818768496
 21
415.0693273798096
 31
0.0
  0
LINE
  5
E5
330
70
100
AcDbEntity
  8
0
 62
    18
420
        0
370
     9
100
AcDbLine
 10
399.1393482162512
 20
489.5333265496174
 30
0.0
 11
435.3027818768496
 21
489.5333265496174
 31
0.0
  0
LINE
  5
E6
330
70
100
AcDbEntity
  8
0
 62
    18
420
        0
370
     9
100
AcDbLine
 10
434.3027818768496
 20
415.0693273798096
 30
0.0
 11
434.3027818768496
 21
489.5333265496174
 31
0.0
  0
LINE
  5
E7
330
70
100
AcDbEntity
  8
0
 62
    18
420
        0
370
     9
100
AcDbLine
 10
399.1393482162512
 20
505.8433265497169
 30
0.0
 11
435.3027818768496
 21
505.8433265497169
 31
0.0
  0
LINE
  5
E8
330
70
100
AcDbEntity
  8
0
 62
    18
420
        0
370
     9
100
AcDbLine
 10
399.1393482162512
 20
489.5333265496174
 30
0.0
 11
435.3027818768496
 21
489.5333265496174
 31
0.0
  0
LINE
  5
E9
330
70
100
AcDbEntity
  8
0
 62
    18
420
        0
370
     9
100
AcDbLine
 10
434.3027818768496
 20
505.8433265497169
 30
0.0
 11
434.3027818768496
 21
505.8433265497169
 31
0.0
  0
LINE
  5
EA
330
70
100
AcDbEntity
  8
0
 62
    18
420
        0
370
     9
100
AcDbLine
 10
434.3027818768496
 20
505.8433265497169
 30
0.0
 11
434.3027818768496
 21
489.5333265496174
 31
0.0
  0
LINE
  5
EB
330
70
100
AcDbEntity
  8
0
 62
    18
420
        0
370
     9
100
AcDbLine
 10
434.3027818768496
 20
489.5333265496174
 30
0.0
 11
434.3027818768496
 21
483.183326549617
 31
0.0
  0
LINE
  5
EC
330
70
100
AcDbEntity
  8
0
 62
    18
420
        0
370
     9
100
AcDbLine
 10
433.6027849286074
 20
501.1071402074867
 30
0.0
 11
434.3027971366828
 21
505.7571341038128
 31
0.0
  0
LINE
  5
ED
330
70
100
AcDbEntity
  8
0
 62
    18
420
        0
370
     9
100
AcDbLine
 10
435.0027788250918
 20
501.107140207172
 30
0.0
 11
433.6027849286074
 21
501.1071402074867
 31
0.0
  0
LINE
  5
EE
330
70
100
AcDbEntity
  8
0
 62
    18
420
        0
370
     9
100
AcDbLine
 10
434.3027971366828
 20
505.7571341038128
 30
0.0
 11
435.0027788250918
 21
501.107140207172
 31
0.0
  0
LINE
  5
EF
330
70
100
AcDbEntity
  8
0
 62
    18
420
        0
370
     9
100
AcDbLine
 10
433.6027849286074
 20
484.8833326532903
 30
0.0
 11
434.3027971366828
 21
489.5333265496174
 31
0.0
  0
LINE
  5
F0
330
70
100
AcDbEntity
  8
0
 62
    18
420
        0
370
     9
100
AcDbLine
 10
435.0027788250918
 20
484.8833326529765
 30
0.0
 11
433.6027849286074
 21
484.8833326532903
 31
0.0
  0
LINE
  5
F1
330
70
100
AcDbEntity
  8
0
 62
    18
420
        0
370
     9
100
AcDbLine
 10
434.3027971366828
 20
489.5333265496174
 30
0.0
 11
435.0027788250918
 21
484.8833326529765
 31
0.0
  0
LINE
  5
F2
330
70
100
AcDbEntity
  8
0
 62
    18
420
        0
370
     9
100
AcDbLine
 10
435.0027940849249
 20
494.1833204458816
 30
0.0
 11
434.3027818764331
 21
489.5333265496174
 31
0.0
  0
LINE
  5
F3
330
70
100
AcDbEntity
  8
0
 62
    18
420
        0
370
     9
100
AcDbLine
 10
433.6028001884406
 20
494.1833204463218
 30
0.0
 11
435.0027940849249
 21
494.1833204458816
 31
0.0
  0
LINE
  5
F4
330
70
100
AcDbEntity
  8
0
 62
    18
420
        0
370
     9
100
AcDbLine
 10
434.3027818764331
 20
489.5333265496174
 30
0.0
 11
433.6028001884406
 21
494.1833204463218
 31
0.0
  0
LINE
  5
F5
330
70
100
AcDbEntity
  8
0
 62
    18
420
        0
370
     9
100
AcDbLine
 10
435.0094537738804
 20
419.7193212760721
 30
0.0
 11
434.3094415653868
 21
415.0693273798096
 31
0.0
  0
LINE
  5
F6
330
70
100
AcDbEntity
  8
0
 62
    18
420
        0
370
     9
100
AcDbLine
 10
433.6094598773961
 20
419.7193212765123
 30
0.0
 11
435.0094537738804
 21
419.7193212760721
 31
0.0
  0
LINE
  5
F7
330
70
100
AcDbEntity
  8
0
 62
    18
420
        0
370
     9
100
AcDbLine
 10
434.3094415653868
 20
415.0693273798096
 30
0.0
 11
433.6094598773961
 21
419.7193212765123
 31
0.0
  0
LINE
  5
F8
330
70
100
AcDbEntity
  8
0
 62
    18
420
        0
370
     9
100
AcDbLine
 10
350.3945305837297
 20
511.2312525570323
 30
0.0
 11
350.3945305837297
 21
540.253079302297
 31
0.0
  0
LINE
  5
F9
330
70
100
AcDbEntity
  8
0
 62
    18
420
        0
370
     9
100
AcDbLine
 10
393.1936305751515
 20
510.8730622666544
 30
0.0
 11
393.1936305751515
 21
539.8948890119181
 31
0.0
  0
LINE
  5
FA
330
70
100
AcDbEntity
  8
0
 62
    18
420
        0
370
     9
100
AcDbLine
 10
350.3859644433305
 20
538.8948890119181
 30
0.0
 11
393.1936305751515
 21
538.8948890119181
 31
0.0
  0
MTEXT
  5
FB
330
70
100
AcDbEntity
  8
0
100
AcDbMText
 10
351.9159240722656
 20
540.7459106445312
 30
0.0
 40
0.2
 41
0.0
 46
0.0
 71
     7
 72
     1
  1
\C18;\c0;\FMyriad Pro|b0|i0|c1;\H4.248000;\W1.000000;Ø43mm / 1.69in
 73
     1
 44
1.0
  0
LINE
  5
FC
330
70
100
AcDbEntity
  8
0
 62
    18
420
        0
370
     9
100
AcDbLine
 10
388.5436366786671
 20
539.5948859601603
 30
0.0
 11
393.1936305751478
 21
538.8948737531291
 31
0.0
  0
LINE
  5
FD
330
70
100
AcDbEntity
  8
0
 62
    18
420
        0
370
     9
100
AcDbLine
 10
388.5436366786671
 20
538.194892063676
 30
0.0
 11
388.5436366786671
 21
539.5948859601603
 31
0.0
  0
LINE
  5
FE
330
70
100
AcDbEntity
  8
0
 62
    18
420
        0
370
     9
100
AcDbLine
 10
393.1936305751478
 20
538.8948737531291
 30
0.0
 11
388.5436366786671
 21
538.194892063676
 31
0.0
  0
LINE
  5
FF
330
70
100
AcDbEntity
  8
0
 62
    18
420
        0
370
     9
100
AcDbLine
 10
355.0359583397494
 20
538.1948768048869
 30
0.0
 11
350.3859644433305
 21
538.8948890123347
 31
0.0
  0
LINE
  5
100
330
70
100
AcDbEntity
  8
0
 62
    18
420
        0
370
     9
100
AcDbLine
 10
355.0359583398767
 20
539.5948707013713
 30
0.0
 11
355.0359583397494
 21
538.1948768048869
 31
0.0
  0
LINE
  5
101
330
70
100
AcDbEntity
  8
0
 62
    18
420
        0
370
     9
100
AcDbLine
 10
350.3859644433305
 20
538.8948890123347
 30
0.0
 11
355.0359583398767
 21
539.5948707013713
 31
0.0
  0
MTEXT
  5
102
330
70
100
AcDbEntity
  8
0
100
AcDbMText
 10
442.4241027831485
 20
430.68457031256
 30
0.0
 40
0.2
 41
0.0
 46
0.0
 71
     7
 72
     1
  1
\C18;\c0;\FMyriad Pro|b0|i0|c1;\H4.248000;\W1.000000;300mm / 11.81in
 11
-0.000000000000007
 21
1.0
 31
0.0
 73
     1
 44
1.0
  0
MTEXT
  5
103
330
70
100
AcDbEntity
  8
0
100
AcDbMText
 10
442.6643676757266
 20
491.85937500006
 30
0.0
 40
0.2
 41
0.0
 46
0.0
 71
     7
 72
     1
  1
\C18;\c0;\FMyriad Pro|b0|i0|c1;\H4.248000;\W1.000000;16mm / 0.64in
 11
-0.000000000000007
 21
1.0
 31
0.0
 73
     1
 44
1.0
  0
LINE
  5
104
330
70
100
AcDbEntity
  8
0
 62
    18
420
        0
370
     9
100
AcDbLine
 10
332.3455700278537
 20
326.4433534642667
 30
0.0
 11
360.7828504612517
 21
298.0060730308651
 31
0.0
  0
LINE
  5
105
330
70
100
AcDbEntity
  8
0
 62
    18
420
        0
370
     9
100
AcDbLine
 10
403.5219059877345
 20
397.619689424153
 30
0.0
 11
431.9591864211361
 21
369.1824089907477
 31
0.0
  0
LINE
  5
106
330
70
100
AcDbEntity
  8
0
 62
    18
420
        0
370
     9
100
AcDbLine
 10
360.0757436800523
 20
298.7131798120645
 30
0.0
 11
431.2520796399367
 21
369.8895157719471
 31
0.0
  0
MTEXT
  5
107
330
70
100
AcDbEntity
  8
0
100
AcDbMText
 10
381.3182953596115
 20
322.38816010952
 30
0.0
 40
0.2
 41
0.0
 46
0.0
 71
     7
 72
     1
  1
\C18;\c0;\FMyriad Pro|b0|i0|c1;\H4.248000;\W1.000000;100mm / 3.95in
 11
0.7071067811865476
 21
0.7071067811865476
 31
0.0
 73
     1
 44
1.0
  0
LINE
  5
108
330
70
100
AcDbEntity
  8
0
 62
    18
420
        0
370
     9
100
AcDbLine
 10
326.5819623802308
 20
325.8817816834234
 30
0.0
 11
307.3546796318296
 21
306.6544989350223
 31
0.0
  0
LINE
  5
109
330
70
100
AcDbEntity
  8
0
 62
    18
420
        0
370
     9
100
AcDbLine
 10
296.4325470819931
 20
356.0311969816594
 30
0.0
 11
277.2052643335937
 21
336.80391423326
 31
0.0
  0
LINE
  5
10A
330
70
100
AcDbEntity
  8
0
 62
    18
420
        0
370
     9
100
AcDbLine
 10
308.0617864130309
 20
307.3616057162253
 30
0.0
 11
277.9123711147931
 21
337.5110210144594
 31
0.0
  0
MTEXT
  5
10B
330
70
100
AcDbEntity
  8
0
100
AcDbMText
 10
280.76706635952
 20
338.1653472185135
 30
0.0
 40
0.2
 41
0.0
 46
0.0
 71
     7
 72
     1
  1
\C18;\c0;\FMyriad Pro|b0|i0|c1;\H4.248000;\W1.000000;Ø43mm / 1.69in
 11
0.7071067811865474
 21
-0.7071067811865478
 31
0.0
 73
     1
 44
1.0
  0
LINE
  5
10C
330
70
100
AcDbEntity
  8
0
 62
   250
420
  1907995
370
     9
100
AcDbLine
 10
427.4520613293898
 20
367.0895279789784
 30
0.0
 11
431.2520796399367
 21
369.8895157719471
 31
0.0
  0
LINE
  5
10D
330
70
100
AcDbEntity
  8
0
 62
   250
420
  1907995
370
     9
100
AcDbLine
 10
428.4520613293898
 20
366.0895279789784
 30
0.0
 11
427.4520613293898
 21
367.0895279789784
 31
0.0
  0
LINE
  5
10E
330
70
100
AcDbEntity
  8
0
 62
   250
420
  1907995
370
     9
100
AcDbLine
 10
431.2520796399367
 20
369.8895157719471
 30
0.0
 11
428.4520613293898
 21
366.0895279789784
 31
0.0
  0
LINE
  5
10F
330
70
100
AcDbEntity
  8
0
 62
   250
420
  1907995
370
     9
100
AcDbLine
 10
305.2617986205714
 20
311.1616240271505
 30
0.0
 11
308.0617864130309
 21
307.3616057162253
 31
0.0
  0
LINE
  5
110
330
70
100
AcDbEntity
  8
0
 62
   250
420
  1907995
370
     9
100
AcDbLine
 10
304.2617986204386
 20
310.1616240272815
 30
0.0
 11
305.2617986205714
 21
311.1616240271505
 31
0.0
  0
LINE
  5
111
330
70
100
AcDbEntity
  8
0
 62
   250
420
  1907995
370
     9
100
AcDbLine
 10
308.0617864130309
 20
307.3616057162253
 30
0.0
 11
304.2617986204386
 21
310.1616240272815
 31
0.0
  0
LINE
  5
112
330
70
100
AcDbEntity
  8
0
 62
   250
420
  1907995
370
     9
100
AcDbLine
 10
280.7123589075909
 20
333.7110027037888
 30
0.0
 11
277.9123711147931
 21
337.5110210144594
 31
0.0
  0
LINE
  5
113
330
70
100
AcDbEntity
  8
0
 62
   250
420
  1907995
370
     9
100
AcDbLine
 10
281.7123589076373
 20
334.7110027037416
 30
0.0
 11
280.7123589075909
 21
333.7110027037888
 31
0.0
  0
LINE
  5
114
330
70
100
AcDbEntity
  8
0
 62
   250
420
  1907995
370
     9
100
AcDbLine
 10
277.9123711147931
 20
337.5110210144594
 30
0.0
 11
281.7123589076373
 21
334.7110027037416
 31
0.0
  0
LINE
  5
115
330
70
100
AcDbEntity
  8
0
 62
   250
420
  1907995
370
     9
100
AcDbLine
 10
363.8757619908501
 20
301.5131676046949
 30
0.0
 11
360.0757436800523
 21
298.7131798120645
 31
0.0
  0
LINE
  5
116
330
70
100
AcDbEntity
  8
0
 62
   250
420
  1907995
370
     9
100
AcDbLine
 10
362.8757619909393
 20
302.5131676047822
 30
0.0
 11
363.8757619908501
 21
301.5131676046949
 31
0.0
  0
LINE
  5
117
330
70
100
AcDbEntity
  8
0
 62
   250
420
  1907995
370
     9
100
AcDbLine
 10
360.0757436800523
 20
298.7131798120645
 30
0.0
 11
362.8757619909393
 21
302.5131676047822
 31
0.0
  0
LINE
  5
118
330
70
100
AcDbEntity
  8
0
 62
    18
420
        0
370
     9
100
AcDbLine
 10
249.9018127727168
 20
471.0835414339453
 30
0.0
 11
300.3054508588175
 21
471.0835414339453
 31
0.0
  0
LINE
  5
119
330
70
100
AcDbEntity
  8
0
 62
    18
420
        0
370
     9
100
AcDbLine
 10
249.9018127727168
 20
501.0835414339453
 30
0.0
 11
300.3054508588175
 21
501.0835414339453
 31
0.0
  0
LINE
  5
11A
330
70
100
AcDbEntity
  8
0
 62
    18
420
        0
370
     9
100
AcDbLine
 10
299.3054508588175
 20
471.0835414339453
 30
0.0
 11
299.3054508588175
 21
501.0835414339453
 31
0.0
  0
LINE
  5
11B
330
70
100
AcDbEntity
  8
0
 62
    18
420
        0
370
     9
100
AcDbLine
 10
228.9384368934288
 20
471.7756968235808
 30
0.0
 11
279.7573737096272
 21
450.7624433521804
 31
0.0
  0
LINE
  5
11C
330
70
100
AcDbEntity
  8
0
 62
    18
420
        0
370
     9
100
AcDbLine
 10
208.466428711019
 20
474.0835414339453
 30
0.0
 11
160.2963405394184
 21
474.0835414339453
 31
0.0
  0
LINE
  5
11D
330
70
100
AcDbEntity
  8
0
 62
    18
420
        0
370
     9
100
AcDbLine
 10
208.466428711019
 20
498.0835414339453
 30
0.0
 11
160.2963405394184
 21
498.0835414339453
 31
0.0
  0
LINE
  5
11E
330
70
100
AcDbEntity
  8
0
 62
    18
420
        0
370
     9
100
AcDbLine
 10
161.2963405394184
 20
474.0835414339453
 30
0.0
 11
161.2963405394184
 21
498.0835414339453
 31
0.0
  0
MTEXT
  5
11F
330
70
100
AcDbEntity
  8
0
100
AcDbMText
 10
305.7930603026798
 20
469.73437500006
 30
0.0
 40
0.2
 41
0.0
 46
0.0
 71
     7
 72
     1
  1
\C18;\c0;\FMyriad Pro|b0|i0|c1;\H4.248000;\W1.000000;30mm / 1.2in
 11
-0.000000000000007
 21
1.0
 31
0.0
 73
     1
 44
1.0
  0
LINE
  5
120
330
70
100
AcDbEntity
  8
0
 62
    18
420
        0
370
     9
100
AcDbLine
 10
298.6054539105771
 20
496.4335475376174
 30
0.0
 11
299.3054661186543
 21
501.0835414339453
 31
0.0
  0
LINE
  5
121
330
70
100
AcDbEntity
  8
0
 62
    18
420
        0
370
     9
100
AcDbLine
 10
300.0054478070597
 20
496.4335475373027
 30
0.0
 11
298.6054539105771
 21
496.4335475376174
 31
0.0
  0
LINE
  5
122
330
70
100
AcDbEntity
  8
0
 62
    18
420
        0
370
     9
100
AcDbLine
 10
299.3054661186543
 20
501.0835414339453
 30
0.0
 11
300.0054478070597
 21
496.4335475373027
 31
0.0
  0
LINE
  5
123
330
70
100
AcDbEntity
  8
0
 62
    18
420
        0
370
     9
100
AcDbLine
 10
300.0054478070597
 20
475.7335353302096
 30
0.0
 11
299.3054355985659
 21
471.0835414339453
 31
0.0
  0
LINE
  5
124
330
70
100
AcDbEntity
  8
0
 62
    18
420
        0
370
     9
100
AcDbLine
 10
298.6054539105771
 20
475.7335353306498
 30
0.0
 11
300.0054478070597
 21
475.7335353302096
 31
0.0
  0
LINE
  5
125
330
70
100
AcDbEntity
  8
0
 62
    18
420
        0
370
     9
100
AcDbLine
 10
299.3054355985659
 20
471.0835414339453
 30
0.0
 11
298.6054539105771
 21
475.7335353306498
 31
0.0
  0
LINE
  5
126
330
70
100
AcDbEntity
  8
0
 62
    18
420
        0
370
     9
100
AcDbLine
 10
160.5963435911762
 20
493.4335475376173
 30
0.0
 11
161.2963557992516
 21
498.0835414339453
 31
0.0
  0
LINE
  5
127
330
70
100
AcDbEntity
  8
0
 62
    18
420
        0
370
     9
100
AcDbLine
 10
161.9963374876606
 20
493.4335475373027
 30
0.0
 11
160.5963435911762
 21
493.4335475376173
 31
0.0
  0
LINE
  5
128
330
70
100
AcDbEntity
  8
0
 62
    18
420
        0
370
     9
100
AcDbLine
 10
161.2963557992516
 20
498.0835414339453
 30
0.0
 11
161.9963374876606
 21
493.4335475373027
 31
0.0
  0
LINE
  5
129
330
70
100
AcDbEntity
  8
0
 62
    18
420
        0
370
     9
100
AcDbLine
 10
161.9963374876606
 20
478.7335353302096
 30
0.0
 11
161.2963252791669
 21
474.0835414339453
 31
0.0
  0
LINE
  5
12A
330
70
100
AcDbEntity
  8
0
 62
    18
420
        0
370
     9
100
AcDbLine
 10
160.5963435911762
 20
478.7335353306498
 30
0.0
 11
161.9963374876606
 21
478.7335353302096
 31
0.0
  0
LINE
  5
12B
330
70
100
AcDbEntity
  8
0
 62
    18
420
        0
370
     9
100
AcDbLine
 10
161.2963252791669
 20
474.0835414339453
 30
0.0
 11
160.5963435911762
 21
478.7335353306498
 31
0.0
  0
MTEXT
  5
12C
330
70
100
AcDbEntity
  8
0
100
AcDbMText
 10
157.5836181640079
 20
467.2343750000599
 30
0.0
 40
0.2
 41
0.0
 46
0.0
 71
     7
 72
     1
  1
\C18;\c0;\FMyriad Pro|b0|i0|c1;\H4.248000;\W1.000000;24mm / 0.94in
 11
-0.000000000000007
 21
1.0
 31
0.0
 73
     1
 44
1.0
  0
MTEXT
  5
12D
330
70
100
AcDbEntity
  8
0
100
AcDbMText
 10
257.4700645208359
 20
462.3742225766181
 30
0.0
 40
0.2
 41
0.0
 46
0.0
 71
     7
 72
     1
  1
\C18;\c0;\FMyriad Pro|b0|i0|c1;\H4.248000;\W1.000000;Ø3mm / 0.126in
 11
0.9241149172930915
 21
-0.3821146681774759
 31
0.0
 73
     1
 44
1.0
  0
ENDSEC
  0
SECTION
  2
OBJECTS
  0
DICTIONARY
  5
C
330
0
100
AcDbDictionary
281
     1
  3
ACAD_COLOR
350
63
  3
ACAD_DETAILVIEWSTYLE
350
6A
  3
ACAD_GROUP
350
D
  3
ACAD_LAYOUT
350
62
  3
ACAD_MATERIAL
350
10
  3
ACAD_MLEADERSTYLE
350
66
  3
ACAD_MLINESTYLE
350
5F
  3
ACAD_PLOTSETTINGS
350
61
  3
ACAD_PLOTSTYLENAME
350
E
  3
ACAD_SCALELIST
350
42
  3
ACAD_SECTIONVIEWSTYLE
350
68
  3
ACAD_TABLESTYLE
350
64
  3
ACAD_VISUALSTYLE
350
29
  3
ACDB_RECOMPOSE_DATA
350
136
  3
AcDbVariableDictionary
350
12E
  0
DICTIONARY
  5
63
102
{ACAD_REACTORS
330
C
102
}
330
C
100
AcDbDictionary
281
     1
  0
DICTIONARY
  5
6A
102
{ACAD_REACTORS
330
C
102
}
330
C
100
AcDbDictionary
281
     1
  3
Imperial24
350
6B
  0
DICTIONARY
  5
D
102
{ACAD_REACTORS
330
C
102
}
330
C
100
AcDbDictionary
281
     1
  0
DICTIONARY
  5
62
102
{ACAD_REACTORS
330
C
102
}
330
C
100
AcDbDictionary
281
     1
  3
Layout1
350
6F
  3
Layout2
350
77
  3
Model
350
73
  0
DICTIONARY
  5
10
102
{ACAD_REACTORS
330
C
102
}
330
C
100
AcDbDictionary
281
     1
  3
ByBlock
350
19
  3
ByLayer
350
11
  3
Global
350
21
  0
DICTIONARY
  5
66
102
{ACAD_REACTORS
330
C
102
}
330
C
100
AcDbDictionary
281
     1
  3
Standard
350
67
  0
DICTIONARY
  5
5F
102
{ACAD_REACTORS
330
C
102
}
330
C
100
AcDbDictionary
281
     1
  3
Standard
350
60
  0
DICTIONARY
  5
61
102
{ACAD_REACTORS
330
C
102
}
330
C
100
AcDbDictionary
281
     1
  0
ACDBDICTIONARYWDFLT
  5
E
102
{ACAD_REACTORS
330
C
102
}
330
C
100
AcDbDictionary
281
     1
  3
Normal
350
F
100
AcDbDictionaryWithDefault
340
F
  0
DICTIONARY
  5
42
102
{ACAD_REACTORS
330
C
102
}
330
C
100
AcDbDictionary
281
     1
  3
A0
350
43
  3
A1
350
44
  3
A2
350
45
  3
A3
350
46
  3
A4
350
47
  3
A5
350
48
  3
A6
350
49
  3
A7
350
4A
  3
A8
350
4B
  3
A9
350
4C
  3
B0
350
4D
  3
B1
350
4E
  3
B2
350
4F
  3
B3
350
50
  3
B4
350
51
  3
B5
350
52
  3
B6
350
53
  0
DICTIONARY
  5
68
102
{ACAD_REACTORS
330
C
102
}
330
C
100
AcDbDictionary
281
     1
  3
Imperial24
350
69
  0
DICTIONARY
  5
64
102
{ACAD_REACTORS
330
C
102
}
330
C
100
AcDbDictionary
281
     1
  3
Standard
350
65
  0
DICTIONARY
  5
29
102
{ACAD_REACTORS
330
C
102
}
330
C
100
AcDbDictionary
281
     1
  3
2dWireframe
350
2F
  3
Basic
350
2E
  3
Brighten
350
35
  3
ColorChange
350
39
  3
Conceptual
350
32
  3
Dim
350
34
  3
EdgeColorOff
350
41
  3
Facepattern
350
38
  3
Flat
350
2A
  3
FlatWithEdges
350
2B
  3
Gouraud
350
2C
  3
GouraudWithEdges
350
2D
  3
Hidden
350
31
  3
JitterOff
350
3F
  3
Linepattern
350
37
  3
OverhangOff
350
40
  3
Realistic
350
33
  3
Shaded
350
3E
  3
Shaded with edges
350
3D
  3
Shades of Gray
350
3A
  3
Sketchy
350
3B
  3
Thicken
350
36
  3
Wireframe
350
30
  3
X-Ray
350
3C
  0
XRECORD
  5
136
102
{ACAD_REACTORS
330
C
102
}
330
C
100
AcDbXrecord
280
     1
 90
        1
330
65
  0
DICTIONARY
  5
12E
102
{ACAD_REACTORS
330
C
102
}
330
C
100
AcDbDictionary
281
     1
  3
CANNOSCALE
350
133
  3
CMLEADERSTYLE
350
130
  3
CTABLESTYLE
350
12F
  3
CVIEWDETAILSTYLE
350
131
  3
CVIEWSECTIONSTYLE
350
132
  0
ACDBDETAILVIEWSTYLE
  5
6B
102
{ACAD_REACTORS
330
6A
102
}
330
6A
100
AcDbModelDocViewStyle
 70
     0
  3
Imperial24
290
     1
300
Imperial24
 90
        0
100
AcDbDetailViewStyle
 70
     0
 71
     0
 90
        3
 71
     1
340
55
 62
   256
 40
0.24
340
0
 62
   256
 40
0.24
300

 40
0.36
280
     3
 71
     2
340
5D
 90
       25
 62
   256
 71
     3
340
55
 62
   256
 40
0.24
 90
        1
 40
0.75
 90
        1
300
%<\AcVar ViewType \f "%tc1">% %<\AcVar ViewDetailId>%\PSCALE %<\AcVar ViewScale \f "%sn">%
 71
     4
340
5D
 90
       25
 62
   256
340
5D
 90
       25
 62
   256
280
     0
  0
LAYOUT
  5
6F
102
{ACAD_REACTORS
330
62
102
}
330
62
100
AcDbPlotSettings
  1

  2

  4

  6

 40
0.0
 41
0.0
 42
0.0
 43
0.0
 44
0.0
 45
0.0
 46
0.0
 47
0.0
 48
0.0
 49
0.0
140
0.0
141
0.0
142
1.0
143
1.0
 70
   688
 72
     0
 73
     0
 74
     5
  7

 75
    16
147
1.0
 76
     0
 77
     2
 78
   300
148
0.0
149
0.0
100
AcDbLayout
  1
Layout1
 70
     1
 71
     1
 10
0.0
 20
0.0
 11
12.0
 21
9.0
 12
0.0
 22
0.0
 32
0.0
 14
0.0
 24
0.0
 34
0.0
 15
0.0
 25
0.0
 35
0.0
146
0.0
 13
0.0
 23
0.0
 33
0.0
 16
1.0
 26
0.0
 36
0.0
 17
0.0
 27
1.0
 37
0.0
 76
     0
330
6C
  0
LAYOUT
  5
77
102
{ACAD_REACTORS
330
62
102
}
330
62
100
AcDbPlotSettings
  1

  2

  4

  6

 40
0.0
 41
0.0
 42
0.0
 43
0.0
 44
0.0
 45
0.0
 46
0.0
 47
0.0
 48
0.0
 49
0.0
140
0.0
141
0.0
142
1.0
143
1.0
 70
   688
 72
     0
 73
     0
 74
     5
  7

 75
    16
147
1.0
 76
     0
 77
     2
 78
   300
148
0.0
149
0.0
100
AcDbLayout
  1
Layout2
 70
     1
 71
     2
 10
0.0
 20
0.0
 11
12.0
 21
9.0
 12
0.0
 22
0.0
 32
0.0
 14
0.0
 24
0.0
 34
0.0
 15
0.0
 25
0.0
 35
0.0
146
0.0
 13
0.0
 23
0.0
 33
0.0
 16
1.0
 26
0.0
 36
0.0
 17
0.0
 27
1.0
 37
0.0
 76
     0
330
74
  0
LAYOUT
  5
73
102
{ACAD_REACTORS
330
62
102
}
330
62
100
AcDbPlotSettings
  1

  2

  4

  6

 40
0.0
 41
0.0
 42
0.0
 43
0.0
 44
0.0
 45
0.0
 46
0.0
 47
0.0
 48
0.0
 49
0.0
140
0.0
141
0.0
142
1.0
143
1.0
 70
  1712
 72
     0
 73
     0
 74
     0
  7

 75
     0
147
1.0
 76
     0
 77
     2
 78
   300
148
0.0
149
0.0
100
AcDbLayout
  1
Model
 70
     1
 71
     0
 10
0.0
 20
0.0
 11
12.0
 21
9.0
 12
0.0
 22
0.0
 32
0.0
 14
0.0
 24
0.0
 34
0.0
 15
0.0
 25
0.0
 35
0.0
146
0.0
 13
0.0
 23
0.0
 33
0.0
 16
1.0
 26
0.0
 36
0.0
 17
0.0
 27
1.0
 37
0.0
 76
     0
330
70
  0
MATERIAL
  5
19
102
{ACAD_XDICTIONARY
360
1A
102
}
102
{ACAD_REACTORS
330
10
102
}
330
10
100
AcDbMaterial
  1
ByBlock
 72
     0
 43
0.0208333333333333
 43
0.0
 43
0.0
 43
0.0
 43
0.0
 43
0.0208333333333333
 43
0.0
 43
0.0
 43
0.0
 43
0.0
 43
1.0
 43
0.0
 43
0.0
 43
0.0
 43
0.0
 43
1.0
 77
     0
 47
0.0208333333333333
 47
0.0
 47
0.0
 47
0.0
 47
0.0
 47
0.0208333333333333
 47
0.0
 47
0.0
 47
0.0
 47
0.0
 47
1.0
 47
0.0
 47
0.0
 47
0.0
 47
0.0
 47
1.0
171
     0
 49
0.0208333333333333
 49
0.0
 49
0.0
 49
0.0
 49
0.0
 49
0.0208333333333333
 49
0.0
 49
0.0
 49
0.0
 49
0.0
 49
1.0
 49
0.0
 49
0.0
 49
0.0
 49
0.0
 49
1.0
175
     0
142
0.0208333333333333
142
0.0
142
0.0
142
0.0
142
0.0
142
0.0208333333333333
142
0.0
142
0.0
142
0.0
142
0.0
142
1.0
142
0.0
142
0.0
142
0.0
142
0.0
142
1.0
179
     0
144
0.0208333333333333
144
0.0
144
0.0
144
0.0
144
0.0
144
0.0208333333333333
144
0.0
144
0.0
144
0.0
144
0.0
144
1.0
144
0.0
144
0.0
144
0.0
144
0.0
144
1.0
147
0.0208333333333333
147
0.0
147
0.0
147
0.0
147
0.0
147
0.0208333333333333
147
0.0
147
0.0
147
0.0
147
0.0
147
1.0
147
0.0
147
0.0
147
0.0
147
0.0
147
1.0
  0
MATERIAL
  5
11
102
{ACAD_XDICTIONARY
360
12
102
}
102
{ACAD_REACTORS
330
10
102
}
330
10
100
AcDbMaterial
  1
ByLayer
 72
     0
 43
0.0208333333333333
 43
0.0
 43
0.0
 43
0.0
 43
0.0
 43
0.0208333333333333
 43
0.0
 43
0.0
 43
0.0
 43
0.0
 43
1.0
 43
0.0
 43
0.0
 43
0.0
 43
0.0
 43
1.0
 77
     0
 47
0.0208333333333333
 47
0.0
 47
0.0
 47
0.0
 47
0.0
 47
0.0208333333333333
 47
0.0
 47
0.0
 47
0.0
 47
0.0
 47
1.0
 47
0.0
 47
0.0
 47
0.0
 47
0.0
 47
1.0
171
     0
 49
0.0208333333333333
 49
0.0
 49
0.0
 49
0.0
 49
0.0
 49
0.0208333333333333
 49
0.0
 49
0.0
 49
0.0
 49
0.0
 49
1.0
 49
0.0
 49
0.0
 49
0.0
 49
0.0
 49
1.0
175
     0
142
0.0208333333333333
142
0.0
142
0.0
142
0.0
142
0.0
142
0.0208333333333333
142
0.0
142
0.0
142
0.0
142
0.0
142
1.0
142
0.0
142
0.0
142
0.0
142
0.0
142
1.0
179
     0
144
0.0208333333333333
144
0.0
144
0.0
144
0.0
144
0.0
144
0.0208333333333333
144
0.0
144
0.0
144
0.0
144
0.0
144
1.0
144
0.0
144
0.0
144
0.0
144
0.0
144
1.0
147
0.0208333333333333
147
0.0
147
0.0
147
0.0
147
0.0
147
0.0208333333333333
147
0.0
147
0.0
147
0.0
147
0.0
147
1.0
147
0.0
147
0.0
147
0.0
147
0.0
147
1.0
  0
MATERIAL
  5
21
102
{ACAD_XDICTIONARY
360
22
102
}
102
{ACAD_REACTORS
330
10
102
}
330
10
100
AcDbMaterial
  1
Global
 72
     0
 43
0.0208333333333333
 43
0.0
 43
0.0
 43
0.0
 43
0.0
 43
0.0208333333333333
 43
0.0
 43
0.0
 43
0.0
 43
0.0
 43
1.0
 43
0.0
 43
0.0
 43
0.0
 43
0.0
 43
1.0
 77
     0
 47
0.0208333333333333
 47
0.0
 47
0.0
 47
0.0
 47
0.0
 47
0.0208333333333333
 47
0.0
 47
0.0
 47
0.0
 47
0.0
 47
1.0
 47
0.0
 47
0.0
 47
0.0
 47
0.0
 47
1.0
171
     0
 49
0.0208333333333333
 49
0.0
 49
0.0
 49
0.0
 49
0.0
 49
0.0208333333333333
 49
0.0
 49
0.0
 49
0.0
 49
0.0
 49
1.0
 49
0.0
 49
0.0
 49
0.0
 49
0.0
 49
1.0
175
     0
142
0.0208333333333333
142
0.0
142
0.0
142
0.0
142
0.0
142
0.0208333333333333
142
0.0
142
0.0
142
0.0
142
0.0
142
1.0
142
0.0
142
0.0
142
0.0
142
0.0
142
1.0
179
     0
144
0.0208333333333333
144
0.0
144
0.0
144
0.0
144
0.0
144
0.0208333333333333
144
0.0
144
0.0
144
0.0
144
0.0
144
1.0
144
0.0
144
0.0
144
0.0
144
0.0
144
1.0
147
0.0208333333333333
147
0.0
147
0.0
147
0.0
147
0.0
147
0.0208333333333333
147
0.0
147
0.0
147
0.0
147
0.0
147
1.0
147
0.0
147
0.0
147
0.0
147
0.0
147
1.0
  0
MLEADERSTYLE
  5
67
102
{ACAD_REACTORS
330
66
102
}
330
66
100
AcDbMLeaderStyle
179
     2
170
     2
171
     1
172
     0
 90
        2
 40
0.0
 41
0.0
173
     1
 91
-1056964608
340
5B
 92
       -2
290
     1
 42
0.09
291
     1
 43
0.36
  3
Standard
 44
0.18
300

342
55
174
     1
178
     6
175
     1
176
     0
 93
-1056964608
 45
0.18
292
     0
297
     0
 46
0.18
 94
-1056964608
 47
1.0
 49
1.0
140
1.0
293
     1
141
0.0
294
     1
177
     0
142
1.0
295
     1
296
     0
143
0.125
271
     0
272
     9
273
     9
298
     1
  0
MLINESTYLE
  5
60
102
{ACAD_REACTORS
330
5F
102
}
330
5F
100
AcDbMlineStyle
  2
STANDARD
 70
     0
  3

 62
   256
 51
90.0
 52
90.0
 71
     2
 49
0.5
 62
   256
  6
BYLAYER
 49
-0.5
 62
   256
  6
BYLAYER
  0
ACDBPLACEHOLDER
  5
F
102
{ACAD_REACTORS
330
E
102
}
330
E
  0
SCALE
  5
43
102
{ACAD_REACTORS
330
42
102
}
330
42
100
AcDbScale
 70
     0
300
1:1
140
1.0
141
1.0
290
     1
  0
SCALE
  5
44
102
{ACAD_REACTORS
330
42
102
}
330
42
100
AcDbScale
 70
     0
300
1/128" = 1'-0"
140
0.0078125
141
12.0
290
     0
  0
SCALE
  5
45
102
{ACAD_REACTORS
330
42
102
}
330
42
100
AcDbScale
 70
     0
300
1/64" = 1'-0"
140
0.015625
141
12.0
290
     0
  0
SCALE
  5
46
102
{ACAD_REACTORS
330
42
102
}
330
42
100
AcDbScale
 70
     0
300
1/32" = 1'-0"
140
0.03125
141
12.0
290
     0
  0
SCALE
  5
47
102
{ACAD_REACTORS
330
42
102
}
330
42
100
AcDbScale
 70
     0
300
1/16" = 1'-0"
140
0.0625
141
12.0
290
     0
  0
SCALE
  5
48
102
{ACAD_REACTORS
330
42
102
}
330
42
100
AcDbScale
 70
     0
300
3/32" = 1'-0"
140
0.09375
141
12.0
290
     0
  0
SCALE
  5
49
102
{ACAD_REACTORS
330
42
102
}
330
42
100
AcDbScale
 70
     0
300
1/8" = 1'-0"
140
0.125
141
12.0
290
     0
  0
SCALE
  5
4A
102
{ACAD_REACTORS
330
42
102
}
330
42
100
AcDbScale
 70
     0
300
3/16" = 1'-0"
140
0.1875
141
12.0
290
     0
  0
SCALE
  5
4B
102
{ACAD_REACTORS
330
42
102
}
330
42
100
AcDbScale
 70
     0
300
1/4" = 1'-0"
140
0.25
141
12.0
290
     0
  0
SCALE
  5
4C
102
{ACAD_REACTORS
330
42
102
}
330
42
100
AcDbScale
 70
     0
300
3/8" = 1'-0"
140
0.375
141
12.0
290
     0
  0
SCALE
  5
4D
102
{ACAD_REACTORS
330
42
102
}
330
42
100
AcDbScale
 70
     0
300
1/2" = 1'-0"
140
0.5
141
12.0
290
     0
  0
SCALE
  5
4E
102
{ACAD_REACTORS
330
42
102
}
330
42
100
AcDbScale
 70
     0
300
3/4" = 1'-0"
140
0.75
141
12.0
290
     0
  0
SCALE
  5
4F
102
{ACAD_REACTORS
330
42
102
}
330
42
100
AcDbScale
 70
     0
300
1" = 1'-0"
140
1.0
141
12.0
290
     0
  0
SCALE
  5
50
102
{ACAD_REACTORS
330
42
102
}
330
42
100
AcDbScale
 70
     0
300
1-1/2" = 1'-0"
140
1.5
141
12.0
290
     0
  0
SCALE
  5
51
102
{ACAD_REACTORS
330
42
102
}
330
42
100
AcDbScale
 70
     0
300
3" = 1'-0"
140
3.0
141
12.0
290
     0
  0
SCALE
  5
52
102
{ACAD_REACTORS
330
42
102
}
330
42
100
AcDbScale
 70
     0
300
6" = 1'-0"
140
6.0
141
12.0
290
     0
  0
SCALE
  5
53
102
{ACAD_REACTORS
330
42
102
}
330
42
100
AcDbScale
 70
     0
300
1'-0" = 1'-0"
140
12.0
141
12.0
290
     0
  0
ACDBSECTIONVIEWSTYLE
  5
69
102
{ACAD_REACTORS
330
68
102
}
330
68
100
AcDbModelDocViewStyle
 70
     0
  3
Imperial24
290
     1
300
Imperial24
 90
        0
100
AcDbSectionViewStyle
 70
     0
 71
     0
 90
       78
 71
     1
340
55
 62
   256
 40
0.24
340
0
340
0
 62
   256
 40
0.24
300
I, O, Q, S, X, Z
 40
0.48
 90
        3
 40
0.18
 90
        1
 71
     2
340
5D
 90
       25
 62
   256
340
5D
 90
       50
 62
   256
 40
0.24
 40
0.0
 40
0.24
 71
     3
340
55
 62
   256
 40
0.24
 90
        1
 40
0.75
 90
        1
300
%<\AcVar ViewType \f "%tc1">% %<\AcVar ViewSectionStartId>%-%<\AcVar ViewSectionEndId>%\PSCALE %<\AcVar ViewScale \f "%sn">%
 71
     4
 62
   256
 62
   257
300
ANSI31
 40
1.0
 90
        0
290
     0
290
     0
 90
        6
 40
0.0
 40
1.570796326794896
 40
0.2617993877991494
 40
1.308996938995747
 40
-0.2617993877991494
 40
1.832595714594046
  0
TABLESTYLE
  5
65
102
{ACAD_XDICTIONARY
360
134
102
}
102
{ACAD_REACTORS
330
64
102
}
330
64
100
AcDbTableStyle
280
     0
  3
Standard
 70
     0
 71
     0
 40
0.06
 41
0.06
280
     0
281
     0
  7
Standard
140
0.18
170
     2
 62
     0
 63
     7
283
     0
 90
      512
 91
        0
  1

274
    -2
284
     1
 64
     0
275
    -2
285
     1
 65
     0
276
    -2
286
     1
 66
     0
277
    -2
287
     1
 67
     0
278
    -2
288
     1
 68
     0
279
    -2
289
     1
 69
     0
  7
Standard
140
0.25
170
     5
 62
     0
 63
     7
283
     0
 90
      512
 91
        0
  1

274
    -2
284
     1
 64
     0
275
    -2
285
     1
 65
     0
276
    -2
286
     1
 66
     0
277
    -2
287
     1
 67
     0
278
    -2
288
     1
 68
     0
279
    -2
289
     1
 69
     0
  7
Standard
140
0.18
170
     5
 62
     0
 63
     7
283
     0
 90
      512
 91
        0
  1

274
    -2
284
     1
 64
     0
275
    -2
285
     1
 65
     0
276
    -2
286
     1
 66
     0
277
    -2
287
     1
 67
     0
278
    -2
288
     1
 68
     0
279
    -2
289
     1
 69
     0
  0
VISUALSTYLE
  5
2F
102
{ACAD_REACTORS
330
29
102
}
330
29
100
AcDbVisualStyle
  2
2dWireframe
 70
     4
177
     3
291
     0
 70
    58
 90
        0
176
     1
 90
        2
176
     1
 90
        0
176
     1
 90
        0
176
     1
 40
0.6
176
     1
 40
30.0
176
     1
 62
     7
420
 16777215
176
     1
 90
        1
176
     1
 90
        4
176
     1
 62
     7
176
     1
 62
   257
176
     1
 90
        1
176
     1
 90
        1
176
     1
 40
1.0
176
     1
 90
        0
176
     1
 62
   257
176
     1
 40
1.0
176
     1
 90
        1
176
     1
 90
        6
176
     1
 90
        2
176
     1
 62
     7
176
     1
 90
        5
176
     1
 90
        0
176
     1
 90
        0
176
     1
290
     0
176
     1
 90
        1
176
     1
 40
0.0
176
     1
 90
        0
176
     1
290
     1
176
     1
290
     1
176
     1
290
     0
176
     1
290
     0
176
     1
290
     0
176
     1
290
     0
176
     1
290
     0
176
     1
290
     0
176
     1
290
     0
176
     1
 90
       50
176
     1
 40
0.0
176
     1
 40
1.0
176
     1
 90
        0
176
     1
 62
    18
420
        0
176
     1
 90
       50
176
     1
 90
        3
176
     1
 62
     5
420
      255
176
     1
290
     0
176
     1
 90
       50
176
     1
 90
       50
176
     1
 90
       50
176
     1
290
     0
176
     1
 90
       50
176
     1
 62
   256
176
     0
 40
1.0
176
     0
 90
        2
176
     1
  1
strokes_ogs.tif
176
     1
290
     0
176
     1
 40
1.0
176
     1
 40
1.0
176
     1
  0
VISUALSTYLE
  5
2E
102
{ACAD_REACTORS
330
29
102
}
330
29
100
AcDbVisualStyle
  2
Basic
 70
     7
177
     3
291
     1
 70
    58
 90
        1
176
     1
 90
        0
176
     1
 90
        1
176
     1
 90
        0
176
     1
 40
0.6
176
     1
 40
30.0
176
     1
 62
     7
420
 16777215
176
     1
 90
        0
176
     1
 90
        4
176
     1
 62
     7
176
     1
 62
   257
176
     1
 90
        1
176
     1
 90
        1
176
     1
 40
1.0
176
     1
 90
        8
176
     1
 62
     7
176
     1
 40
1.0
176
     1
 90
        1
176
     1
 90
        6
176
     1
 90
        2
176
     1
 62
     7
176
     1
 90
        5
176
     1
 90
        0
176
     1
 90
        0
176
     1
290
     0
176
     1
 90
        1
176
     1
 40
0.0
176
     1
 90
        0
176
     1
290
     0
176
     1
290
     1
176
     1
290
     1
176
     1
290
     0
176
     1
290
     0
176
     1
290
     0
176
     1
290
     0
176
     1
290
     0
176
     1
290
     0
176
     1
 90
       50
176
     1
 40
0.0
176
     1
 40
1.0
176
     1
 90
        0
176
     1
 62
    18
420
        0
176
     1
 90
       50
176
     1
 90
        3
176
     1
 62
     5
420
      255
176
     1
290
     0
176
     1
 90
       50
176
     1
 90
       50
176
     1
 90
       50
176
     1
290
     0
176
     1
 90
       50
176
     1
 62
   256
176
     0
 40
1.0
176
     0
 90
        2
176
     1
  1
strokes_ogs.tif
176
     1
290
     0
176
     1
 40
1.0
176
     1
 40
1.0
176
     1
  0
VISUALSTYLE
  5
35
102
{ACAD_REACTORS
330
29
102
}
330
29
100
AcDbVisualStyle
  2
Brighten
 70
    12
177
     3
291
     1
 70
    58
 90
        2
176
     1
 90
        2
176
     1
 90
        0
176
     1
 90
        0
176
     1
 40
0.6
176
     1
 40
30.0
176
     1
 62
     7
420
 16777215
176
     1
 90
        1
176
     1
 90
        4
176
     1
 62
     7
176
     1
 62
   257
176
     1
 90
        1
176
     1
 90
        1
176
     1
 40
1.0
176
     1
 90
        8
176
     1
 62
     7
176
     1
 40
1.0
176
     1
 90
        1
176
     1
 90
        6
176
     1
 90
        2
176
     1
 62
     7
176
     1
 90
        5
176
     1
 90
        0
176
     1
 90
        0
176
     1
290
     0
176
     1
 90
        1
176
     1
 40
50.0
176
     1
 90
        0
176
     1
290
     0
176
     1
290
     1
176
     1
290
     1
176
     1
290
     0
176
     1
290
     0
176
     1
290
     0
176
     1
290
     0
176
     1
290
     0
176
     1
290
     0
176
     1
 90
       50
176
     1
 40
0.0
176
     1
 40
1.0
176
     1
 90
        0
176
     1
 62
    18
420
        0
176
     1
 90
       50
176
     1
 90
        3
176
     1
 62
     5
420
      255
176
     1
290
     0
176
     1
 90
       50
176
     1
 90
       50
176
     1
 90
       50
176
     1
290
     0
176
     1
 90
       50
176
     1
 62
   256
176
     0
 40
1.0
176
     0
 90
        2
176
     1
  1
strokes_ogs.tif
176
     1
290
     0
176
     1
 40
1.0
176
     1
 40
1.0
176
     1
  0
VISUALSTYLE
  5
39
102
{ACAD_REACTORS
330
29
102
}
330
29
100
AcDbVisualStyle
  2
ColorChange
 70
    16
177
     3
291
     1
 70
    58
 90
        2
176
     1
 90
        2
176
     1
 90
        3
176
     1
 90
        0
176
     1
 40
0.6
176
     1
 40
30.0
176
     1
 62
     8
420
  8421504
176
     1
 90
        1
176
     1
 90
        4
176
     1
 62
     7
176
     1
 62
   257
176
     1
 90
        1
176
     1
 90
        1
176
     1
 40
1.0
176
     1
 90
        8
176
     1
 62
     8
420
  8421504
176
     1
 40
1.0
176
     1
 90
        1
176
     1
 90
        6
176
     1
 90
        2
176
     1
 62
     7
176
     1
 90
        5
176
     1
 90
        0
176
     1
 90
        0
176
     1
290
     0
176
     1
 90
        1
176
     1
 40
0.0
176
     1
 90
        0
176
     1
290
     0
176
     1
290
     1
176
     1
290
     1
176
     1
290
     0
176
     1
290
     0
176
     1
290
     0
176
     1
290
     0
176
     1
290
     0
176
     1
290
     0
176
     1
 90
       50
176
     1
 40
0.0
176
     1
 40
1.0
176
     1
 90
        0
176
     1
 62
    18
420
        0
176
     1
 90
       50
176
     1
 90
        3
176
     1
 62
     5
420
      255
176
     1
290
     0
176
     1
 90
       50
176
     1
 90
       50
176
     1
 90
       50
176
     1
290
     0
176
     1
 90
       50
176
     1
 62
   256
176
     0
 40
1.0
176
     0
 90
        2
176
     1
  1
strokes_ogs.tif
176
     1
290
     0
176
     1
 40
1.0
176
     1
 40
1.0
176
     1
  0
VISUALSTYLE
  5
32
102
{ACAD_REACTORS
330
29
102
}
330
29
100
AcDbVisualStyle
  2
Conceptual
 70
     9
177
     3
291
     0
 70
    58
 90
        3
176
     1
 90
        2
176
     1
 90
        0
176
     1
 90
        0
176
     1
 40
0.6
176
     1
 40
30.0
176
     1
 62
     7
420
 16777215
176
     1
 90
        2
176
     1
 90
        2
176
     1
 62
     7
176
     1
 62
   257
176
     1
 90
        1
176
     1
 90
        1
176
     1
 40
179.0
176
     1
 90
        8
176
     1
 62
     7
176
     1
 40
1.0
176
     1
 90
        1
176
     1
 90
        6
176
     1
 90
        2
176
     1
 62
     7
176
     1
 90
        3
176
     1
 90
        0
176
     1
 90
        0
176
     1
290
     0
176
     1
 90
        1
176
     1
 40
0.0
176
     1
 90
        0
176
     1
290
     0
176
     1
290
     1
176
     1
290
     1
176
     1
290
     0
176
     1
290
     0
176
     1
290
     0
176
     1
290
     0
176
     1
290
     0
176
     1
290
     0
176
     1
 90
       50
176
     1
 40
0.0
176
     1
 40
1.0
176
     1
 90
        0
176
     1
 62
    18
420
        0
176
     1
 90
       50
176
     1
 90
        3
176
     1
 62
     5
420
      255
176
     1
290
     0
176
     1
 90
       50
176
     1
 90
       50
176
     1
 90
       50
176
     1
290
     0
176
     1
 90
       50
176
     1
 62
   256
176
     0
 40
1.0
176
     0
 90
        2
176
     1
  1
strokes_ogs.tif
176
     1
290
     0
176
     1
 40
1.0
176
     1
 40
1.0
176
     1
  0
VISUALSTYLE
  5
34
102
{ACAD_REACTORS
330
29
102
}
330
29
100
AcDbVisualStyle
  2
Dim
 70
    11
177
     3
291
     1
 70
    58
 90
        2
176
     1
 90
        2
176
     1
 90
        0
176
     1
 90
        0
176
     1
 40
0.6
176
     1
 40
30.0
176
     1
 62
     7
420
 16777215
176
     1
 90
        1
176
     1
 90
        4
176
     1
 62
     7
176
     1
 62
   257
176
     1
 90
        1
176
     1
 90
        1
176
     1
 40
1.0
176
     1
 90
        8
176
     1
 62
     7
176
     1
 40
1.0
176
     1
 90
        1
176
     1
 90
        6
176
     1
 90
        2
176
     1
 62
     7
176
     1
 90
        5
176
     1
 90
        0
176
     1
 90
        0
176
     1
290
     0
176
     1
 90
        1
176
     1
 40
-50.0
176
     1
 90
        0
176
     1
290
     0
176
     1
290
     1
176
     1
290
     1
176
     1
290
     0
176
     1
290
     0
176
     1
290
     0
176
     1
290
     0
176
     1
290
     0
176
     1
290
     0
176
     1
 90
       50
176
     1
 40
0.0
176
     1
 40
1.0
176
     1
 90
        0
176
     1
 62
    18
420
        0
176
     1
 90
       50
176
     1
 90
        3
176
     1
 62
     5
420
      255
176
     1
290
     0
176
     1
 90
       50
176
     1
 90
       50
176
     1
 90
       50
176
     1
290
     0
176
     1
 90
       50
176
     1
 62
   256
176
     0
 40
1.0
176
     0
 90
        2
176
     1
  1
strokes_ogs.tif
176
     1
290
     0
176
     1
 40
1.0
176
     1
 40
1.0
176
     1
  0
VISUALSTYLE
  5
41
102
{ACAD_REACTORS
330
29
102
}
330
29
100
AcDbVisualStyle
  2
EdgeColorOff
 70
    22
177
     3
291
     1
 70
    58
 90
        2
176
     0
 90
        2
176
     0
 90
        0
176
     0
 90
        0
176
     0
 40
0.6
176
     0
 40
30.0
176
     0
 62
     7
420
 16777215
176
     0
 90
        1
176
     0
 90
        4
176
     0
 62
     7
176
     0
 62
   257
176
     0
 90
        1
176
     0
 90
        1
176
     0
 40
1.0
176
     0
 90
        8
176
     2
 62
     7
176
     0
 40
1.0
176
     0
 90
        1
176
     0
 90
        6
176
     0
 90
        2
176
     0
 62
     7
176
     0
 90
        5
176
     0
 90
        0
176
     0
 90
        0
176
     0
290
     0
176
     0
 90
        1
176
     0
 40
0.0
176
     0
 90
        0
176
     0
290
     0
176
     0
290
     1
176
     0
290
     1
176
     0
290
     0
176
     0
290
     0
176
     0
290
     0
176
     0
290
     0
176
     0
290
     0
176
     0
290
     0
176
     0
 90
       50
176
     0
 40
0.0
176
     0
 40
1.0
176
     0
 90
        0
176
     0
 62
    18
420
        0
176
     0
 90
       50
176
     0
 90
        3
176
     0
 62
     5
420
      255
176
     0
290
     0
176
     0
 90
       50
176
     0
 90
       50
176
     0
 90
       50
176
     0
290
     0
176
     0
 90
       50
176
     0
 62
   256
176
     0
 40
1.0
176
     0
 90
        2
176
     0
  1
strokes_ogs.tif
176
     0
290
     0
176
     0
 40
1.0
176
     0
 40
1.0
176
     0
  0
VISUALSTYLE
  5
38
102
{ACAD_REACTORS
330
29
102
}
330
29
100
AcDbVisualStyle
  2
Facepattern
 70
    15
177
     3
291
     1
 70
    58
 90
        2
176
     1
 90
        2
176
     1
 90
        0
176
     1
 90
        0
176
     1
 40
0.6
176
     1
 40
30.0
176
     1
 62
     7
420
 16777215
176
     1
 90
        1
176
     1
 90
        4
176
     1
 62
     7
176
     1
 62
   257
176
     1
 90
        1
176
     1
 90
        1
176
     1
 40
1.0
176
     1
 90
        8
176
     1
 62
     7
176
     1
 40
1.0
176
     1
 90
        1
176
     1
 90
        6
176
     1
 90
        2
176
     1
 62
     7
176
     1
 90
        5
176
     1
 90
        0
176
     1
 90
        0
176
     1
290
     0
176
     1
 90
        1
176
     1
 40
0.0
176
     1
 90
        0
176
     1
290
     0
176
     1
290
     1
176
     1
290
     1
176
     1
290
     0
176
     1
290
     0
176
     1
290
     0
176
     1
290
     0
176
     1
290
     0
176
     1
290
     0
176
     1
 90
       50
176
     1
 40
0.0
176
     1
 40
1.0
176
     1
 90
        0
176
     1
 62
    18
420
        0
176
     1
 90
       50
176
     1
 90
        3
176
     1
 62
     5
420
      255
176
     1
290
     0
176
     1
 90
       50
176
     1
 90
       50
176
     1
 90
       50
176
     1
290
     0
176
     1
 90
       50
176
     1
 62
   256
176
     0
 40
1.0
176
     0
 90
        2
176
     1
  1
strokes_ogs.tif
176
     1
290
     0
176
     1
 40
1.0
176
     1
 40
1.0
176
     1
  0
VISUALSTYLE
  5
2A
102
{ACAD_REACTORS
330
29
102
}
330
29
100
AcDbVisualStyle
  2
Flat
 70
     0
177
     3
291
     1
 70
    58
 90
        2
176
     1
 90
        1
176
     1
 90
        1
176
     1
 90
        2
176
     1
 40
0.6
176
     1
 40
30.0
176
     1
 62
     7
420
 16777215
176
     1
 90
        0
176
     1
 90
        0
176
     1
 62
     7
176
     1
 62
   257
176
     1
 90
        1
176
     1
 90
        1
176
     1
 40
1.0
176
     1
 90
        8
176
     1
 62
     7
176
     1
 40
1.0
176
     1
 90
        1
176
     1
 90
        6
176
     1
 90
        2
176
     1
 62
     7
176
     1
 90
        5
176
     1
 90
        0
176
     1
 90
        0
176
     1
290
     0
176
     1
 90
       13
176
     1
 40
0.0
176
     1
 90
        0
176
     1
290
     0
176
     1
290
     1
176
     1
290
     1
176
     1
290
     0
176
     1
290
     0
176
     1
290
     0
176
     1
290
     0
176
     1
290
     0
176
     1
290
     0
176
     1
 90
       50
176
     1
 40
0.0
176
     1
 40
1.0
176
     1
 90
        0
176
     1
 62
    18
420
        0
176
     1
 90
       50
176
     1
 90
        3
176
     1
 62
     5
420
      255
176
     1
290
     0
176
     1
 90
       50
176
     1
 90
       50
176
     1
 90
       50
176
     1
290
     0
176
     1
 90
       50
176
     1
 62
   256
176
     0
 40
1.0
176
     0
 90
        2
176
     1
  1
strokes_ogs.tif
176
     1
290
     0
176
     1
 40
1.0
176
     1
 40
1.0
176
     1
  0
VISUALSTYLE
  5
2B
102
{ACAD_REACTORS
330
29
102
}
330
29
100
AcDbVisualStyle
  2
FlatWithEdges
 70
     1
177
     3
291
     1
 70
    58
 90
        2
176
     1
 90
        1
176
     1
 90
        1
176
     1
 90
        2
176
     1
 40
0.6
176
     1
 40
30.0
176
     1
 62
     7
420
 16777215
176
     1
 90
        1
176
     1
 90
        0
176
     1
 62
     7
176
     1
 62
   257
176
     1
 90
        1
176
     1
 90
        1
176
     1
 40
1.0
176
     1
 90
        0
176
     1
 62
   257
176
     1
 40
1.0
176
     1
 90
        1
176
     1
 90
        6
176
     1
 90
        2
176
     1
 62
     7
176
     1
 90
        5
176
     1
 90
        0
176
     1
 90
        0
176
     1
290
     0
176
     1
 90
       13
176
     1
 40
0.0
176
     1
 90
        0
176
     1
290
     0
176
     1
290
     1
176
     1
290
     1
176
     1
290
     0
176
     1
290
     0
176
     1
290
     0
176
     1
290
     0
176
     1
290
     0
176
     1
290
     0
176
     1
 90
       50
176
     1
 40
0.0
176
     1
 40
1.0
176
     1
 90
        0
176
     1
 62
    18
420
        0
176
     1
 90
       50
176
     1
 90
        3
176
     1
 62
     5
420
      255
176
     1
290
     0
176
     1
 90
       50
176
     1
 90
       50
176
     1
 90
       50
176
     1
290
     0
176
     1
 90
       50
176
     1
 62
   256
176
     0
 40
1.0
176
     0
 90
        2
176
     1
  1
strokes_ogs.tif
176
     1
290
     0
176
     1
 40
1.0
176
     1
 40
1.0
176
     1
  0
VISUALSTYLE
  5
2C
102
{ACAD_REACTORS
330
29
102
}
330
29
100
AcDbVisualStyle
  2
Gouraud
 70
     2
177
     3
291
     1
 70
    58
 90
        2
176
     1
 90
        2
176
     1
 90
        1
176
     1
 90
        2
176
     1
 40
0.6
176
     1
 40
30.0
176
     1
 62
     7
420
 16777215
176
     1
 90
        0
176
     1
 90
        0
176
     1
 62
     7
176
     1
 62
   257
176
     1
 90
        1
176
     1
 90
        1
176
     1
 40
1.0
176
     1
 90
        0
176
     1
 62
     7
176
     1
 40
1.0
176
     1
 90
        1
176
     1
 90
        6
176
     1
 90
        2
176
     1
 62
     7
176
     1
 90
        5
176
     1
 90
        0
176
     1
 90
        0
176
     1
290
     0
176
     1
 90
       13
176
     1
 40
0.0
176
     1
 90
        0
176
     1
290
     0
176
     1
290
     1
176
     1
290
     1
176
     1
290
     0
176
     1
290
     0
176
     1
290
     0
176
     1
290
     0
176
     1
290
     0
176
     1
290
     0
176
     1
 90
       50
176
     1
 40
0.0
176
     1
 40
1.0
176
     1
 90
        0
176
     1
 62
    18
420
        0
176
     1
 90
       50
176
     1
 90
        3
176
     1
 62
     5
420
      255
176
     1
290
     0
176
     1
 90
       50
176
     1
 90
       50
176
     1
 90
       50
176
     1
290
     0
176
     1
 90
       50
176
     1
 62
   256
176
     0
 40
1.0
176
     0
 90
        2
176
     1
  1
strokes_ogs.tif
176
     1
290
     0
176
     1
 40
1.0
176
     1
 40
1.0
176
     1
  0
VISUALSTYLE
  5
2D
102
{ACAD_REACTORS
330
29
102
}
330
29
100
AcDbVisualStyle
  2
GouraudWithEdges
 70
     3
177
     3
291
     1
 70
    58
 90
        2
176
     1
 90
        2
176
     1
 90
        1
176
     1
 90
        2
176
     1
 40
0.6
176
     1
 40
30.0
176
     1
 62
     7
420
 16777215
176
     1
 90
        1
176
     1
 90
        0
176
     1
 62
     7
176
     1
 62
   257
176
     1
 90
        1
176
     1
 90
        1
176
     1
 40
1.0
176
     1
 90
        0
176
     1
 62
   257
176
     1
 40
1.0
176
     1
 90
        1
176
     1
 90
        6
176
     1
 90
        2
176
     1
 62
     7
176
     1
 90
        5
176
     1
 90
        0
176
     1
 90
        0
176
     1
290
     0
176
     1
 90
       13
176
     1
 40
0.0
176
     1
 90
        0
176
     1
290
     0
176
     1
290
     1
176
     1
290
     1
176
     1
290
     0
176
     1
290
     0
176
     1
290
     0
176
     1
290
     0
176
     1
290
     0
176
     1
290
     0
176
     1
 90
       50
176
     1
 40
0.0
176
     1
 40
1.0
176
     1
 90
        0
176
     1
 62
    18
420
        0
176
     1
 90
       50
176
     1
 90
        3
176
     1
 62
     5
420
      255
176
     1
290
     0
176
     1
 90
       50
176
     1
 90
       50
176
     1
 90
       50
176
     1
290
     0
176
     1
 90
       50
176
     1
 62
   256
176
     0
 40
1.0
176
     0
 90
        2
176
     1
  1
strokes_ogs.tif
176
     1
290
     0
176
     1
 40
1.0
176
     1
 40
1.0
176
     1
  0
VISUALSTYLE
  5
31
102
{ACAD_REACTORS
330
29
102
}
330
29
100
AcDbVisualStyle
  2
Hidden
 70
     6
177
     3
291
     0
 70
    58
 90
        1
176
     1
 90
        2
176
     1
 90
        2
176
     1
 90
        0
176
     1
 40
0.6
176
     1
 40
30.0
176
     1
 62
     7
420
 16777215
176
     1
 90
        2
176
     1
 90
        2
176
     1
 62
     7
176
     1
 62
   257
176
     1
 90
        2
176
     1
 90
        1
176
     1
 40
40.0
176
     1
 90
        0
176
     1
 62
   257
176
     1
 40
1.0
176
     1
 90
        1
176
     1
 90
        6
176
     1
 90
        2
176
     1
 62
     7
176
     1
 90
        3
176
     1
 90
        0
176
     1
 90
        0
176
     1
290
     0
176
     1
 90
        1
176
     1
 40
0.0
176
     1
 90
        0
176
     1
290
     0
176
     1
290
     1
176
     1
290
     1
176
     1
290
     0
176
     1
290
     0
176
     1
290
     0
176
     1
290
     0
176
     1
290
     0
176
     1
290
     0
176
     1
 90
       50
176
     1
 40
0.0
176
     1
 40
1.0
176
     1
 90
        0
176
     1
 62
    18
420
        0
176
     1
 90
       50
176
     1
 90
        3
176
     1
 62
     5
420
      255
176
     1
290
     0
176
     1
 90
       50
176
     1
 90
       50
176
     1
 90
       50
176
     1
290
     0
176
     1
 90
       50
176
     1
 62
   256
176
     0
 40
1.0
176
     0
 90
        2
176
     1
  1
strokes_ogs.tif
176
     1
290
     0
176
     1
 40
1.0
176
     1
 40
1.0
176
     1
  0
VISUALSTYLE
  5
3F
102
{ACAD_REACTORS
330
29
102
}
330
29
100
AcDbVisualStyle
  2
JitterOff
 70
    20
177
     3
291
     1
 70
    58
 90
        2
176
     0
 90
        2
176
     0
 90
        0
176
     0
 90
        0
176
     0
 40
0.6
176
     0
 40
30.0
176
     0
 62
     7
420
 16777215
176
     0
 90
        1
176
     0
 90
        4
176
     0
 62
     7
176
     0
 62
   257
176
     0
 90
        1
176
     0
 90
        1
176
     0
 40
1.0
176
     0
 90
       10
176
     2
 62
     7
176
     0
 40
1.0
176
     0
 90
        1
176
     0
 90
        6
176
     0
 90
        2
176
     0
 62
     7
176
     0
 90
        5
176
     0
 90
        0
176
     0
 90
        0
176
     0
290
     0
176
     0
 90
        1
176
     0
 40
0.0
176
     0
 90
        0
176
     0
290
     0
176
     0
290
     1
176
     0
290
     1
176
     0
290
     0
176
     0
290
     0
176
     0
290
     0
176
     0
290
     0
176
     0
290
     0
176
     0
290
     0
176
     0
 90
       50
176
     0
 40
0.0
176
     0
 40
1.0
176
     0
 90
        0
176
     0
 62
    18
420
        0
176
     0
 90
       50
176
     0
 90
        3
176
     0
 62
     5
420
      255
176
     0
290
     0
176
     0
 90
       50
176
     0
 90
       50
176
     0
 90
       50
176
     0
290
     0
176
     0
 90
       50
176
     0
 62
   256
176
     0
 40
1.0
176
     0
 90
        2
176
     0
  1
strokes_ogs.tif
176
     0
290
     0
176
     0
 40
1.0
176
     0
 40
1.0
176
     0
  0
VISUALSTYLE
  5
37
102
{ACAD_REACTORS
330
29
102
}
330
29
100
AcDbVisualStyle
  2
Linepattern
 70
    14
177
     3
291
     1
 70
    58
 90
        2
176
     1
 90
        2
176
     1
 90
        0
176
     1
 90
        0
176
     1
 40
0.6
176
     1
 40
30.0
176
     1
 62
     7
420
 16777215
176
     1
 90
        1
176
     1
 90
        4
176
     1
 62
     7
176
     1
 62
   257
176
     1
 90
        7
176
     1
 90
        7
176
     1
 40
1.0
176
     1
 90
        8
176
     1
 62
     7
176
     1
 40
1.0
176
     1
 90
        1
176
     1
 90
        6
176
     1
 90
        2
176
     1
 62
     7
176
     1
 90
        5
176
     1
 90
        0
176
     1
 90
        0
176
     1
290
     0
176
     1
 90
        1
176
     1
 40
0.0
176
     1
 90
        0
176
     1
290
     0
176
     1
290
     1
176
     1
290
     1
176
     1
290
     0
176
     1
290
     0
176
     1
290
     0
176
     1
290
     0
176
     1
290
     0
176
     1
290
     0
176
     1
 90
       50
176
     1
 40
0.0
176
     1
 40
1.0
176
     1
 90
        0
176
     1
 62
    18
420
        0
176
     1
 90
       50
176
     1
 90
        3
176
     1
 62
     5
420
      255
176
     1
290
     0
176
     1
 90
       50
176
     1
 90
       50
176
     1
 90
       50
176
     1
290
     0
176
     1
 90
       50
176
     1
 62
   256
176
     0
 40
1.0
176
     0
 90
        2
176
     1
  1
strokes_ogs.tif
176
     1
290
     0
176
     1
 40
1.0
176
     1
 40
1.0
176
     1
  0
VISUALSTYLE
  5
40
102
{ACAD_REACTORS
330
29
102
}
330
29
100
AcDbVisualStyle
  2
OverhangOff
 70
    21
177
     3
291
     1
 70
    58
 90
        2
176
     0
 90
        2
176
     0
 90
        0
176
     0
 90
        0
176
     0
 40
0.6
176
     0
 40
30.0
176
     0
 62
     7
420
 16777215
176
     0
 90
        1
176
     0
 90
        4
176
     0
 62
     7
176
     0
 62
   257
176
     0
 90
        1
176
     0
 90
        1
176
     0
 40
1.0
176
     0
 90
        9
176
     2
 62
     7
176
     0
 40
1.0
176
     0
 90
        1
176
     0
 90
        6
176
     0
 90
        2
176
     0
 62
     7
176
     0
 90
        5
176
     0
 90
        0
176
     0
 90
        0
176
     0
290
     0
176
     0
 90
        1
176
     0
 40
0.0
176
     0
 90
        0
176
     0
290
     0
176
     0
290
     1
176
     0
290
     1
176
     0
290
     0
176
     0
290
     0
176
     0
290
     0
176
     0
290
     0
176
     0
290
     0
176
     0
290
     0
176
     0
 90
       50
176
     0
 40
0.0
176
     0
 40
1.0
176
     0
 90
        0
176
     0
 62
    18
420
        0
176
     0
 90
       50
176
     0
 90
        3
176
     0
 62
     5
420
      255
176
     0
290
     0
176
     0
 90
       50
176
     0
 90
       50
176
     0
 90
       50
176
     0
290
     0
176
     0
 90
       50
176
     0
 62
   256
176
     0
 40
1.0
176
     0
 90
        2
176
     0
  1
strokes_ogs.tif
176
     0
290
     0
176
     0
 40
1.0
176
     0
 40
1.0
176
     0
  0
VISUALSTYLE
  5
33
102
{ACAD_REACTORS
330
29
102
}
330
29
100
AcDbVisualStyle
  2
Realistic
 70
     8
177
     3
291
     0
 70
    58
 90
        2
176
     1
 90
        3
176
     1
 90
        0
176
     1
 90
        2
176
     1
 40
0.6
176
     1
 40
30.0
176
     1
 62
     7
420
 16777215
176
     1
 90
        0
176
     1
 90
        0
176
     1
 62
     7
176
     1
 62
   257
176
     1
 90
        1
176
     1
 90
        1
176
     1
 40
1.0
176
     1
 90
        8
176
     1
 62
   257
176
     1
 40
1.0
176
     1
 90
        1
176
     1
 90
        6
176
     1
 90
        2
176
     1
 62
     7
176
     1
 90
        3
176
     1
 90
        0
176
     1
 90
        0
176
     1
290
     0
176
     1
 90
       13
176
     1
 40
0.0
176
     1
 90
        0
176
     1
290
     0
176
     1
290
     1
176
     1
290
     1
176
     1
290
     0
176
     1
290
     0
176
     1
290
     0
176
     1
290
     0
176
     1
290
     0
176
     1
290
     0
176
     1
 90
       50
176
     1
 40
0.0
176
     1
 40
1.0
176
     1
 90
        0
176
     1
 62
    18
420
        0
176
     1
 90
       50
176
     1
 90
        3
176
     1
 62
     5
420
      255
176
     1
290
     0
176
     1
 90
       50
176
     1
 90
       50
176
     1
 90
       50
176
     1
290
     0
176
     1
 90
       50
176
     1
 62
   256
176
     0
 40
1.0
176
     0
 90
        2
176
     1
  1
strokes_ogs.tif
176
     1
290
     0
176
     1
 40
1.0
176
     1
 40
1.0
176
     1
  0
VISUALSTYLE
  5
3E
102
{ACAD_REACTORS
330
29
102
}
330
29
100
AcDbVisualStyle
  2
Shaded
 70
    27
177
     3
291
     0
 70
    58
 90
        2
176
     1
 90
        2
176
     1
 90
        1
176
     1
 90
        2
176
     1
 40
0.6
176
     1
 40
30.0
176
     1
 62
     7
420
 16777215
176
     1
 90
        0
176
     1
 90
        4
176
     1
 62
     7
176
     1
 62
   257
176
     1
 90
        1
176
     1
 90
        1
176
     1
 40
1.0
176
     1
 90
        8
176
     1
 62
   257
176
     1
 40
1.0
176
     1
 90
        1
176
     1
 90
        6
176
     1
 90
        2
176
     1
 62
     8
420
  7895160
176
     1
 90
        3
176
     1
 90
        0
176
     1
 90
        0
176
     1
290
     0
176
     1
 90
        5
176
     1
 40
0.0
176
     1
 90
        0
176
     1
290
     0
176
     1
290
     1
176
     1
290
     1
176
     1
290
     0
176
     1
290
     0
176
     1
290
     0
176
     1
290
     0
176
     1
290
     0
176
     1
290
     0
176
     1
 90
       50
176
     1
 40
0.0
176
     1
 40
1.0
176
     1
 90
        0
176
     1
 62
    18
420
        0
176
     1
 90
       50
176
     1
 90
        3
176
     1
 62
     5
420
      255
176
     1
290
     0
176
     1
 90
       50
176
     1
 90
       50
176
     1
 90
       50
176
     1
290
     0
176
     1
 90
       50
176
     1
 62
   256
176
     0
 40
1.0
176
     0
 90
        2
176
     1
  1
strokes_ogs.tif
176
     1
290
     0
176
     1
 40
1.0
176
     1
 40
1.0
176
     1
  0
VISUALSTYLE
  5
3D
102
{ACAD_REACTORS
330
29
102
}
330
29
100
AcDbVisualStyle
  2
Shaded with edges
 70
    26
177
     3
291
     0
 70
    58
 90
        2
176
     1
 90
        2
176
     1
 90
        1
176
     1
 90
        2
176
     1
 40
0.6
176
     1
 40
30.0
176
     1
 62
     7
420
 16777215
176
     1
 90
        1
176
     1
 90
        2
176
     1
 62
     7
176
     1
 62
   257
176
     1
 90
        2
176
     1
 90
        1
176
     1
 40
1.0
176
     1
 90
        8
176
     1
 62
   257
176
     1
 40
1.0
176
     1
 90
        1
176
     1
 90
        6
176
     1
 90
        2
176
     1
 62
     7
176
     1
 90
        3
176
     1
 90
        0
176
     1
 90
        0
176
     1
290
     0
176
     1
 90
        5
176
     1
 40
0.0
176
     1
 90
        0
176
     1
290
     0
176
     1
290
     1
176
     1
290
     1
176
     1
290
     0
176
     1
290
     0
176
     1
290
     0
176
     1
290
     0
176
     1
290
     0
176
     1
290
     0
176
     1
 90
       50
176
     1
 40
0.0
176
     1
 40
1.0
176
     1
 90
        0
176
     1
 62
    18
420
        0
176
     1
 90
       50
176
     1
 90
        3
176
     1
 62
     5
420
      255
176
     1
290
     0
176
     1
 90
       50
176
     1
 90
       50
176
     1
 90
       50
176
     1
290
     0
176
     1
 90
       50
176
     1
 62
   256
176
     0
 40
1.0
176
     0
 90
        2
176
     1
  1
strokes_ogs.tif
176
     1
290
     0
176
     1
 40
1.0
176
     1
 40
1.0
176
     1
  0
VISUALSTYLE
  5
3A
102
{ACAD_REACTORS
330
29
102
}
330
29
100
AcDbVisualStyle
  2
Shades of Gray
 70
    23
177
     3
291
     0
 70
    58
 90
        2
176
     1
 90
        2
176
     1
 90
        3
176
     1
 90
        0
176
     1
 40
0.6
176
     1
 40
30.0
176
     1
 62
     7
420
 16777215
176
     1
 90
        2
176
     1
 90
        2
176
     1
 62
     7
176
     1
 62
     7
176
     1
 90
        1
176
     1
 90
        1
176
     1
 40
40.0
176
     1
 90
        8
176
     1
 62
     7
176
     1
 40
1.0
176
     1
 90
        1
176
     1
 90
        6
176
     1
 90
        2
176
     1
 62
     7
176
     1
 90
        3
176
     1
 90
        0
176
     1
 90
        0
176
     1
290
     0
176
     1
 90
        1
176
     1
 40
0.0
176
     1
 90
        0
176
     1
290
     0
176
     1
290
     1
176
     1
290
     1
176
     1
290
     0
176
     1
290
     0
176
     1
290
     0
176
     1
290
     0
176
     1
290
     0
176
     1
290
     0
176
     1
 90
       50
176
     1
 40
0.0
176
     1
 40
1.0
176
     1
 90
        0
176
     1
 62
    18
420
        0
176
     1
 90
       50
176
     1
 90
        3
176
     1
 62
     5
420
      255
176
     1
290
     0
176
     1
 90
       50
176
     1
 90
       50
176
     1
 90
       50
176
     1
290
     0
176
     1
 90
       50
176
     1
 62
   256
176
     0
 40
1.0
176
     0
 90
        2
176
     1
  1
strokes_ogs.tif
176
     1
290
     0
176
     1
 40
1.0
176
     1
 40
1.0
176
     1
  0
VISUALSTYLE
  5
3B
102
{ACAD_REACTORS
330
29
102
}
330
29
100
AcDbVisualStyle
  2
Sketchy
 70
    24
177
     3
291
     0
 70
    58
 90
        1
176
     1
 90
        2
176
     1
 90
        2
176
     1
 90
        0
176
     1
 40
0.6
176
     1
 40
30.0
176
     1
 62
     7
420
 16777215
176
     1
 90
        2
176
     1
 90
        2
176
     1
 62
     7
176
     1
 62
     7
176
     1
 90
        1
176
     1
 90
        1
176
     1
 40
40.0
176
     1
 90
       11
176
     1
 62
     7
176
     1
 40
1.0
176
     1
 90
        1
176
     1
 90
        6
176
     1
 90
        2
176
     1
 62
     7
176
     1
 90
        6
176
     1
 90
        0
176
     1
 90
        0
176
     1
290
     0
176
     1
 90
        1
176
     1
 40
0.0
176
     1
 90
        0
176
     1
290
     0
176
     1
290
     1
176
     1
290
     1
176
     1
290
     0
176
     1
290
     0
176
     1
290
     0
176
     1
290
     0
176
     1
290
     0
176
     1
290
     0
176
     1
 90
       50
176
     1
 40
0.0
176
     1
 40
1.0
176
     1
 90
        0
176
     1
 62
    18
420
        0
176
     1
 90
       50
176
     1
 90
        3
176
     1
 62
     5
420
      255
176
     1
290
     0
176
     1
 90
       50
176
     1
 90
       50
176
     1
 90
       50
176
     1
290
     0
176
     1
 90
       50
176
     1
 62
   256
176
     0
 40
1.0
176
     0
 90
        2
176
     1
  1
strokes_ogs.tif
176
     1
290
     0
176
     1
 40
1.0
176
     1
 40
1.0
176
     1
  0
VISUALSTYLE
  5
36
102
{ACAD_REACTORS
330
29
102
}
330
29
100
AcDbVisualStyle
  2
Thicken
 70
    13
177
     3
291
     1
 70
    58
 90
        2
176
     1
 90
        2
176
     1
 90
        0
176
     1
 90
        0
176
     1
 40
0.6
176
     1
 40
30.0
176
     1
 62
     7
420
 16777215
176
     1
 90
        1
176
     1
 90
        4
176
     1
 62
     7
176
     1
 62
   257
176
     1
 90
        1
176
     1
 90
        1
176
     1
 40
1.0
176
     1
 90
       12
176
     1
 62
     7
176
     1
 40
1.0
176
     1
 90
        1
176
     1
 90
        6
176
     1
 90
        2
176
     1
 62
     7
176
     1
 90
        5
176
     1
 90
        0
176
     1
 90
        0
176
     1
290
     0
176
     1
 90
        1
176
     1
 40
0.0
176
     1
 90
        0
176
     1
290
     0
176
     1
290
     1
176
     1
290
     1
176
     1
290
     0
176
     1
290
     0
176
     1
290
     0
176
     1
290
     0
176
     1
290
     0
176
     1
290
     0
176
     1
 90
       50
176
     1
 40
0.0
176
     1
 40
1.0
176
     1
 90
        0
176
     1
 62
    18
420
        0
176
     1
 90
       50
176
     1
 90
        3
176
     1
 62
     5
420
      255
176
     1
290
     0
176
     1
 90
       50
176
     1
 90
       50
176
     1
 90
       50
176
     1
290
     0
176
     1
 90
       50
176
     1
 62
   256
176
     0
 40
1.0
176
     0
 90
        2
176
     1
  1
strokes_ogs.tif
176
     1
290
     0
176
     1
 40
1.0
176
     1
 40
1.0
176
     1
  0
VISUALSTYLE
  5
30
102
{ACAD_REACTORS
330
29
102
}
330
29
100
AcDbVisualStyle
  2
Wireframe
 70
     5
177
     3
291
     0
 70
    58
 90
        0
176
     1
 90
        2
176
     1
 90
        0
176
     1
 90
        0
176
     1
 40
0.6
176
     1
 40
30.0
176
     1
 62
     7
420
 16777215
176
     1
 90
        1
176
     1
 90
        4
176
     1
 62
     7
176
     1
 62
   257
176
     1
 90
        1
176
     1
 90
        1
176
     1
 40
1.0
176
     1
 90
        0
176
     1
 62
   257
176
     1
 40
1.0
176
     1
 90
        1
176
     1
 90
        6
176
     1
 90
        2
176
     1
 62
     7
176
     1
 90
        3
176
     1
 90
        0
176
     1
 90
        0
176
     1
290
     0
176
     1
 90
        1
176
     1
 40
0.0
176
     1
 90
        0
176
     1
290
     0
176
     1
290
     1
176
     1
290
     1
176
     1
290
     0
176
     1
290
     0
176
     1
290
     0
176
     1
290
     0
176
     1
290
     0
176
     1
290
     0
176
     1
 90
       50
176
     1
 40
0.0
176
     1
 40
1.0
176
     1
 90
        0
176
     1
 62
    18
420
        0
176
     1
 90
       50
176
     1
 90
        3
176
     1
 62
     5
420
      255
176
     1
290
     0
176
     1
 90
       50
176
     1
 90
       50
176
     1
 90
       50
176
     1
290
     0
176
     1
 90
       50
176
     1
 62
   256
176
     0
 40
1.0
176
     0
 90
        2
176
     1
  1
strokes_ogs.tif
176
     1
290
     0
176
     1
 40
1.0
176
     1
 40
1.0
176
     1
  0
VISUALSTYLE
  5
3C
102
{ACAD_REACTORS
330
29
102
}
330
29
100
AcDbVisualStyle
  2
X-Ray
 70
    25
177
     3
291
     0
 70
    58
 90
        2
176
     1
 90
        2
176
     1
 90
        1
176
     1
 90
        1
176
     1
 40
0.5
176
     1
 40
30.0
176
     1
 62
     7
420
 16777215
176
     1
 90
        1
176
     1
 90
        0
176
     1
 62
     7
176
     1
 62
   257
176
     1
 90
        1
176
     1
 90
        1
176
     1
 40
1.0
176
     1
 90
        8
176
     1
 62
     7
176
     1
 40
1.0
176
     1
 90
        1
176
     1
 90
        6
176
     1
 90
        2
176
     1
 62
     7
176
     1
 90
        3
176
     1
 90
        0
176
     1
 90
        0
176
     1
290
     0
176
     1
 90
       13
176
     1
 40
0.0
176
     1
 90
        0
176
     1
290
     0
176
     1
290
     1
176
     1
290
     1
176
     1
290
     0
176
     1
290
     0
176
     1
290
     0
176
     1
290
     0
176
     1
290
     0
176
     1
290
     0
176
     1
 90
       50
176
     1
 40
0.0
176
     1
 40
1.0
176
     1
 90
        0
176
     1
 62
    18
420
        0
176
     1
 90
       50
176
     1
 90
        3
176
     1
 62
     5
420
      255
176
     1
290
     0
176
     1
 90
       50
176
     1
 90
       50
176
     1
 90
       50
176
     1
290
     0
176
     1
 90
       50
176
     1
 62
   256
176
     0
 40
1.0
176
     0
 90
        2
176
     1
  1
strokes_ogs.tif
176
     1
290
     0
176
     1
 40
1.0
176
     1
 40
1.0
176
     1
  0
DICTIONARYVAR
  5
133
102
{ACAD_REACTORS
330
12E
102
}
330
12E
100
DictionaryVariables
280
     0
  1
1:1
  0
DICTIONARYVAR
  5
130
102
{ACAD_REACTORS
330
12E
102
}
330
12E
100
DictionaryVariables
280
     0
  1
STANDARD
  0
DICTIONARYVAR
  5
12F
102
{ACAD_REACTORS
330
12E
102
}
330
12E
100
DictionaryVariables
280
     0
  1
STANDARD
  0
DICTIONARYVAR
  5
131
102
{ACAD_REACTORS
330
12E
102
}
330
12E
100
DictionaryVariables
280
     0
  1
Imperial24
  0
DICTIONARYVAR
  5
132
102
{ACAD_REACTORS
330
12E
102
}
330
12E
100
DictionaryVariables
280
     0
  1
Imperial24
  0
DICTIONARY
  5
1A
330
19
100
AcDbDictionary
280
     1
281
     1
  3
BUMPTILE
360
1C
  3
DIFFUSETILE
360
1B
  3
OPACITYTILE
360
1F
  3
REFLECTIONTILE
360
1E
  3
REFRACTIONTILE
360
20
  3
SPECULARTILE
360
1D
  0
DICTIONARY
  5
12
330
11
100
AcDbDictionary
280
     1
281
     1
  3
BUMPTILE
360
14
  3
DIFFUSETILE
360
13
  3
OPACITYTILE
360
17
  3
REFLECTIONTILE
360
16
  3
REFRACTIONTILE
360
18
  3
SPECULARTILE
360
15
  0
DICTIONARY
  5
22
330
21
100
AcDbDictionary
280
     1
281
     1
  3
BUMPTILE
360
24
  3
DIFFUSETILE
360
23
  3
OPACITYTILE
360
27
  3
REFLECTIONTILE
360
26
  3
REFRACTIONTILE
360
28
  3
SPECULARTILE
360
25
  0
DICTIONARY
  5
134
330
65
100
AcDbDictionary
280
     1
281
     1
  3
ACAD_ROUNDTRIP_2008_TABLESTYLE_CELLSTYLEMAP
360
135
  0
XRECORD
  5
1C
102
{ACAD_REACTORS
330
1A
102
}
330
1A
100
AcDbXrecord
280
     1
270
     1
271
     1
  0
XRECORD
  5
1B
102
{ACAD_REACTORS
330
1A
102
}
330
1A
100
AcDbXrecord
280
     1
270
     1
271
     1
  0
XRECORD
  5
1F
102
{ACAD_REACTORS
330
1A
102
}
330
1A
100
AcDbXrecord
280
     1
270
     1
271
     1
  0
XRECORD
  5
1E
102
{ACAD_REACTORS
330
1A
102
}
330
1A
100
AcDbXrecord
280
     1
270
     1
271
     1
  0
XRECORD
  5
20
102
{ACAD_REACTORS
330
1A
102
}
330
1A
100
AcDbXrecord
280
     1
270
     1
271
     1
  0
XRECORD
  5
1D
102
{ACAD_REACTORS
330
1A
102
}
330
1A
100
AcDbXrecord
280
     1
270
     1
271
     1
  0
XRECORD
  5
14
102
{ACAD_REACTORS
330
12
102
}
330
12
100
AcDbXrecord
280
     1
270
     1
271
     1
  0
XRECORD
  5
13
102
{ACAD_REACTORS
330
12
102
}
330
12
100
AcDbXrecord
280
     1
270
     1
271
     1
  0
XRECORD
  5
17
102
{ACAD_REACTORS
330
12
102
}
330
12
100
AcDbXrecord
280
     1
270
     1
271
     1
  0
XRECORD
  5
16
102
{ACAD_REACTORS
330
12
102
}
330
12
100
AcDbXrecord
280
     1
270
     1
271
     1
  0
XRECORD
  5
18
102
{ACAD_REACTORS
330
12
102
}
330
12
100
AcDbXrecord
280
     1
270
     1
271
     1
  0
XRECORD
  5
15
102
{ACAD_REACTORS
330
12
102
}
330
12
100
AcDbXrecord
280
     1
270
     1
271
     1
  0
XRECORD
  5
24
102
{ACAD_REACTORS
330
22
102
}
330
22
100
AcDbXrecord
280
     1
270
     1
271
     1
  0
XRECORD
  5
23
102
{ACAD_REACTORS
330
22
102
}
330
22
100
AcDbXrecord
280
     1
270
     1
271
     1
  0
XRECORD
  5
27
102
{ACAD_REACTORS
330
22
102
}
330
22
100
AcDbXrecord
280
     1
270
     1
271
     1
  0
XRECORD
  5
26
102
{ACAD_REACTORS
330
22
102
}
330
22
100
AcDbXrecord
280
     1
270
     1
271
     1
  0
XRECORD
  5
28
102
{ACAD_REACTORS
330
22
102
}
330
22
100
AcDbXrecord
280
     1
270
     1
271
     1
  0
XRECORD
  5
25
102
{ACAD_REACTORS
330
22
102
}
330
22
100
AcDbXrecord
280
     1
270
     1
271
     1
  0
CELLSTYLEMAP
  5
135
102
{ACAD_REACTORS
330
134
102
}
330
134
100
AcDbCellStyleMap
 90
        3
300
CELLSTYLE
  1
TABLEFORMAT_BEGIN
 90
        5
170
     1
 91
        0
 92
    32768
 62
   257
 93
        1
300
CONTENTFORMAT
  1
CONTENTFORMAT_BEGIN
 90
        0
 91
        0
 92
      512
 93
        0
300

 40
0.0
140
1.0
 94
        5
 62
     0
340
55
144
0.25
309
CONTENTFORMAT_END
171
     0
 94
        0
309
TABLEFORMAT_END
  1
CELLSTYLE_BEGIN
 90
        1
 91
        1
300
_TITLE
309
CELLSTYLE_END
300
CELLSTYLE
  1
TABLEFORMAT_BEGIN
 90
        5
170
     1
 91
        0
 92
        0
 62
   257
 93
        1
300
CONTENTFORMAT
  1
CONTENTFORMAT_BEGIN
 90
        0
 91
        0
 92
      512
 93
        0
300

 40
0.0
140
1.0
 94
        5
 62
     0
340
55
144
0.18
309
CONTENTFORMAT_END
171
     0
 94
        0
309
TABLEFORMAT_END
  1
CELLSTYLE_BEGIN
 90
        2
 91
        1
300
_HEADER
309
CELLSTYLE_END
300
CELLSTYLE
  1
TABLEFORMAT_BEGIN
 90
        5
170
     1
 91
        0
 92
        0
 62
   257
 93
        1
300
CONTENTFORMAT
  1
CONTENTFORMAT_BEGIN
 90
        0
 91
        0
 92
      512
 93
        0
300

 40
0.0
140
1.0
 94
        2
 62
     0
340
55
144
0.18
309
CONTENTFORMAT_END
171
     0
 94
        0
309
TABLEFORMAT_END
  1
CELLSTYLE_BEGIN
 90
        3
 91
        2
300
_DATA
309
CELLSTYLE_END
  0
ENDSEC
  0
EOF
